Oops, an error
Loading. Please wait.

The Way It Is Tab

version 1
version 1

Whole song

Interactive

20,612 views 15 this week
3 commentsread comments
1 2 3 4 5
accurate
x 6
add to favorites
launch autoscroll
font size
0
reset
how to read this tab
guitar tuner
Tab Pro tools
  • play this tab
  • loop segment
  • change instrument
  • show fretboard
  • metronome
×
Best way to learn
"The Way It Is"
Autoscroll
slow
fast
+/-
esc
set tempo
stop
Contributor


|--2--2--2-3-2---------------3--3--3-3-3--2--2--2-3p2-2---|
|--3--3--3-3-3--1--1--1-1-1--3--3--3-3-3--3--3--3-3---3---|
|--2--2--2-2-2--0--0--0-0-0--0--0--0-0-0--2--2--2-2---2---|
|--0--0--0-0-0--2--2--2-2-2--0--0--0-0-0--0--0--0-0---0---|
|---------------3--3--3-3-3--2--2--2-2-2------------------|
|----------------------------3--3--3-3-3------------------|

[:11]
e|---------------------------|
B|---------------------------|
G|-----7-----------7------7--|
D|--/7--------/7-------------|
A|---------------------------|
E|---------------------------|

e|-------------------------------------------------------|---------------|
B|-15-15-15/13-13-13-13/12-12-12-12/10-10--8-10-10bp8-10-|---------------|
G|-------------------------------------------------------|-----7-9b-9b-7-|
D|-------------------------------------------------------|-7h9-----------|
A|-------------------------------------------------------|---------------|
E|-------------------------------------------------------|---------------|

Repeat Intro

[:41]
e|--15-14--------|
B|--------15-----|
G|-----------14--|
D|---------------|
A|---------------|
E|---------------|

Chorus

e|---------------------------------|         |-----------|
B|---------------------------------| Repeat  |--/15p13---|
G|-7-7--5-5--4-4-----------------7-|         |-----------|
D|-7-7--5-5--4-4--5-5--5-5--7-7--7-|         |-----------|
A|-5-5--3-3--2-2--5-5--5-5--7-7--5-|         |-----------|
E|----------------3-3--3-3--5-5----|         |-----------|

[1:52]
e|-------------------------------------------------------------|
B|-------------------------------------------------------------|
G|---------------------------------------7-7--5-5--4-----------|
D|-5--5-5--5-5-5-5-5--7--7-7--7-7-7-7-7--7-7--5-5--4--5-5--5-5-|
A|-5--5-5--5-5-5-5-5--7--7-7--7-7-7-7-7--5-5--3-3--2--5-5--5-5-|
E|-3--3-3--3-3-3-3-3--5--5-5--5-5-5-5-5---------------3-3--3-3-|

e|--------------------------|--------------------------|
B|--------------------------|--------------------------|
G|-----7--9-7-9b-9b-7-------|-----7--9-7-9b-9b-7-------|
D|-7h9----------------------|-7h9----------------7-----|
A|--------------------10-10-|----------------------10--|
E|--------------------------|--------------------------|

Solo
[2:28]
e|---------------------------------------|--------------------------------|
B|-------10b-10-10-9-8-7-6-7-8-9-10------|--------------------------------|
G|-----7----------------------------9b-7-|------7/5-5-5-5/4-4-4-4---------|
D|-7h9-----------------------------------|-7h9---------------------7--5---|
A|---------------------------------------|------------------------------7-|
E|---------------------------------------|--------------------------------|

e|--------------------------------------------------------------------|
B|----------------------10--------------------------------------------|
G|-----7---9bp7-7h9-10--12b---12bp10-12-10-12-12b-12b-10--------------|
D|-7h9---------------------------------------------------12--10-12-12-|
A|--------------------------------------------------------------------|
E|--------------------------------------------------------------------|

e|-------10------------10------------10-13-10h13p10----10----------------|
B|-10-13----13b--10-13----13b--10-13----------------13----13-10----------|
G|--------------------------------------------------------------12p10----|
D|-----------------------------------------------------------------------|
A|-----------------------------------------------------------------------|
E|-----------------------------------------------------------------------|

e|-----------|------------------------------------10-------|
B|-10--------|-12-12p10----12-x-12-12p10----10-13----13b---|
G|-12bp10-12-|-12-12p10----12-x-12-12p10-------------------|
D|-----------|----------12---------------12----------------|
A|-----------|---------------------------------------------|
E|-----------|---------------------------------------------|

[3:58]
 P.M.------------------->
e|-----------------------|-------------------|
B|-----------------------|-------------------|
G|-------------7---7---7-|--12bp10-12-12-----|
D|-----5----7--7---7---7-|---------------12--|
A|-----5----7--5-5-5-5-5-|-------------------|
E|-3-3-3--5-5------------|-------------------|

Outro

e|----10-10-----10-10-----10-10-----10-10-----10-10-----15b-15-15-15r-13---|
B|----10-10-----10-10-----10-10-----10-10-----10-10-13b-----------------15-|
G|-12b------12b-------12b-------12b-------12b------------------------------|
D|-------------------------------------------------------------------------|
A|-------------------------------------------------------------------------|
E|-------------------------------------------------------------------------|

e|-20b--------20b---20b--20b-17-20-17h20p17-------------------------------|
B|------------------------------------------20-17-17h20p17----17----------|
G|---------------------------------------------------------19----17h19p17-|
D|------------------------------------------------------------------------|
A|------------------------------------------------------------------------|
E|-----3////--------------------------------------------------------------|

e|-------------------------------------|-------10-----------10------------|
B|-------------------------------------|-10-13----13b-10-13----13b-10-13--|
G|-------------------------------------|----------------------------------|
D|-19-17-19-17-19----------------------|----------------------------------|
A|----------------17-19-17-------------|----------------------------------|
E|-------------------------20-19-17-15-|----------------------------------|

e|-10-----------10-13-10h13p10----10--------------------------------------|
B|----13b-10-13----------------13----13-10-13p10----10--------------------|
G|-----------------------------------------------12----12p10----12p10-----|
D|-----------------------------------------------------------12-------10--|
A|------------------------------------------------------------------------|
E|------------------------------------------------------------------------|

e|--------------------------------------------------------------|
B|--------------------------------------------------------------|
G|-12p10----12p10----12p10----12p10----12p10----12p10----10-----|
D|-------12-------12-------12-------12-------12-------12----12--|
A|--------------------------------------------------------------|
E|--------------------------------------------------------------|

e|-17p14----17p14----17p14----17p14----17p14----17p14----17p14----17p14---|
B|-------15-------15-------15-------15-------15-------15-------15-------15|
G|------------------------------------------------------------------------|
D|------------------------------------------------------------------------|
A|------------------------------------------------------------------------|
E|------------------------------------------------------------------------|

e|-17b-17--17-15-14-15-14h15p14-------------------------------------------|
B|-------------------------------15-15/13-13-13-13/12-12-12-12/10-10-10---|
G|------------------------------------------------------------------------|
D|------------------------------------------------------------------------|
A|------------------------------------------------------------------------|
E|------------------------------------------------------------------------|

e|----------|-----2-------1--------0-----------|
B|----------|----------------------------------|
G|-10h12----|-/2----2--1-----1--0-----0--------|
D|-------12-|----------------------------4--0--|
A|----------|----------------------------------|
E|----------|----------------------------------|


comments
print report bad tab
3 comments total.
0 reply
ledjam15 wrote on July 20 2010, 11:08 am

you are wrong with the first part of the song. try it again. it is not a C after the D.

+1 reply
ledjam15 wrote on July 29 2010, 01:28 pm

the actual chord is an Fmaj7

0 reply
hurryfashion wrote on January 1 2016, 11:45 am

The second chord in song is Fmaj7 (xx3210), not C (x32010). It can be played as Fmaj7/C (x33210) to add another low C note.

I want to post or [tab]
guest
You may want to rate the tab now too:
select rating
Please do not post tabs as comments. Select "correction" instead!