Oops, an error
Loading. Please wait.

Circle Square Triangle bass

version 1
version 1

Whole song

Interactive

464 views 1 this week
no commentswrite comment
1 2 3 4 5
3 more votes to show rating
add to favorites
×
Save as Personal and add changes to this tab that will be seen only by you. Learn more ›
×
You can save this tab as Personal to edit and correct it or add notes. All changes will be seen only by you. Learn more »
launch autoscroll
font size
0
reset
guitar tuner
edit
Autoscroll
slow
fast
+/-
esc
set tempo
stop
Author
A bass tab for your delectation.

INTRO:

G|---------------------------------------------------------------------------|
D|---------------------------------------------------------------------------|
A|--7/16\4-------------------------------------------------------------------|
E|---------------------------------------------------------------------------|

Then just repeat 4th fret UNTIL VERSE WHICH IS LIKE:

G|---------------------------------------------------------------------------|
D|------------6\4-4-4/7-7-9--------------------------------------------------|
A|--4-4-4/7-7----------------------------------------------------------------|
E|---------------------------------------------------------------------------|

Then for the "one more time..." bit, play this twice:

G|---------------------------------------------------------------------------|
D|---------------------------------------------------------------------------|
A|--4-4/7--------------------------------------------------------------------|
E|---------------------------------------------------------------------------|

Then this twice:

G|-----------------9---------------------------------------------------------|
D|--------7-7-9-10-----------------------------------------------------------|
A|--4-4/7--------------------------------------------------------------------|
E|---------------------------------------------------------------------------|

And then for "we could do..." play just fourth fret A for the first two times, then:

G|---------------------------------------------------------------------------|
D|--7-9----------------------------------------------------------------------|
A|---------------------------------------------------------------------------|
E|---------------------------------------------------------------------------|

For the third time, back to fourth for the fourthe time, then the bridge into the second verse is:

G|---------------------------------------------------------------------------|
D|----4----------------------------------------------------------------------|
A|--4---4-7-4-2--------------------------------------------------------------|
E|---------------------------------------------------------------------------|

Twice, with the third time being:

G|---------------------------------------------------------------------------|
D|--7-9----------------------------------------------------------------------|
A|---------------------------------------------------------------------------|
E|---------------------------------------------------------------------------|

OR:

G|---------------------------------------------------------------------------|
D|---4-----4-7---------------------------------------------------------------|
A|-4---4-7-------------------------------------------------------------------|
E|---------------------------------------------------------------------------|

Then it's back to the verse riff again.

Then the SECOND "... poison..." riff, with this added variation at the end:

G|---------------------------------------------------------------------------|
D|---------------------------------------------------------------------------|
A|--7-9----------------------------------------------------------------------|
E|---------------------------------------------------------------------------|

And then this for the whole of the freestyling section:

G|-------------------------9-------------------------------------------------|
D|------------------7-9-10---------------------------------------------------|
A|--4-4-4-4-4-2-4-4----------------------------------------------------------|
E|---------------------------------------------------------------------------|

EXCEPT the last one where it's:

G|---------------------------------------------------------------------------|
D|--------------2-2-4-2------------------------------------------------------|
A|--4-4-4-4-2-2-----------------2-2-2-2--------------------------------------|
E|----------------------5-5-5-5----------------------------------------------|

Then the verse riff until the end, and then you're done loike!

| /  slide up
| \  slide down
| h  hammer-on
| p  pull-off
| ~  vibrato
| +  harmonic
| x  Mute note
===============================================================================

            
            
Suggest correction
Creating personal tab
Creating personal tab
You can edit any tab online and save it as your Personal.

You can edit, replace or remove any tab part or add personal notes – all changes will be seen only by you.

Personal tabs can be accessed anytime from any device, even offline.
Learn more »
Give kudos to tab author, rate the tab!
1 2 3 4 5
comments
print report bad tab
guest
You may want to rate the tab now too:
select rating
Wanna post a correction for this tab? Suggest correction