Oops, an error
Loading. Please wait.

Alone In The Dark Bass Tab

version 1
version 1

Whole song

Interactive

1,494 views 1 this week
no commentswrite comment
1 2 3 4 5
please rate
add to favorites
launch autoscroll
font size
0
reset
guitar tuner
Autoscroll
slow
fast
+/-
esc
set tempo
stop
Help us to improve Ultimate-Guitar.com Take our survey!
×
Author
Difficulty
novice
standard tuning

G|--------------------------------------------------------------------------|
D|----------------------3----------7--5------------------------3--3-2-------|
A|---------------------------------------7---7-5-----------3-2--------3-2---|
E|-5------1------5-------------5-----------------8-7-5-1------------------5-|

G|------------------------------|
D|------------3-------2--3------|
A|-----------------5------------|
E|-3-0-5------------------------|


G|------------------------------------------------|
D|---------------------------1-p---------1-p------|
A|-----------------3-0-p-----------1-p----------3-|
E|-p-------------1----------------------------1---|


G|--------------------------------------------------------|
D|-------------1-----------------------------1------------|
A|-0-0-0-0-0-0----0-0-0-0-0-0-1--0-0-0-0-0-0----0-0-0---3-|
E|----------------------------------------------------1---|

G|--------------------------------------------------------|
D|-------------1-----------------------------1------------|
A|-0-0-0-0-0-0----0-0-0-0-0-0-1--0-0-0-0-0-0---0-p------3-|
E|----------------------------------------------------1---|


G|--------------------------------------------------------|
D|-------------1-----------------------------1------------|
A|-0-0-0-0-0-0----0-0-0-0-0-0-1--0-0-0-0-0-0----0-0-0---3-|
E|----------------------------------------------------1---|


G|------------------------------------------------------------------|
D|-------------1-----------------------------1----------------------|
A|-0-0-0-0-0-0----0-0-0-0-0-0-1--0-0-0-0-0-0----0-0-0-1--3--5--3--3-|
E|------------------------------------------------------------------|



G|| ---------------------------------------------------5-8--- ||
D||.-----------------------------------------------4-7-----4-.||
A||.-------------------------0--3--------------3-6-----------.||
E|| -2-2-2-2-3p2-2-2-2-2-2-2-------2-2-2-2-3p2--------------- ||


G|--------------------------------------------------------|
D|-------------1-----------------------------1------------|
A|-0-0-0-0-0-0----0-0-0-0-0-0-1--0-0-0-0-0-0----0-0-0---3-|
E|----------------------------------------------------1---|

G|---------------------------------------------------------|
D|-------------1-----------------------------1-------------|
A|-0-0-0-0-0-0----0-0-0-0-0-0-1--0-0-0-0-0-0----0-p------3-|
E|----------------------------------------------------1----|


G|| --------------------------------------------------- ||
D||.---------------------------------------3--2--------.||
A||.---------------------------------------------5--3--.||
E|| -5--5-3-5-3-0-5--5-3-0-5--3--1--1-1-1-------------- ||


G|-----------------------------------------------------------------|
D|-----------------------------------------------------------------|
A|-0-0-0-0-0-0-0-0-0-0-0-0-0-0-0-0---------------------------------|
E|---------------------------------1-1-1-1-1-1-1-1-1-1-1-1-1-1-1-1-|

G|-----------------------------------------------------------------|
D|---------------------------------3-3-3-3-3-3-3-3-3-3-3-3-3-3-3-3-|
A|-0-0-0-0-0-0-0-0-0-0-0-0-0-0-0-0---------------------------------|
E|-----------------------------------------------------------------|


                                                                x3
G|| ------------------------------------------------------------- ||
D||.-----------------3-3-3-3-3-3-3-3-----------------0-0-0-------.||
A||.-0-0-0-0-0-0-0-0-----------------2-2-2-3p2-2-3p2----------3--.||
E|| -------------------------------------------------------1----- ||

G|| ------------------------------------------------------------- ||
D||.-----------------3-3-3-3-3-3-3-3-----------------0-0-0-------.||
A||.-0-0-0-0-0-0-0-0-----------------2-2-2-3p2-2-3p2-------------.||
E|| -------------------------------------------------------1--0-- ||

               x3
G|| ------------- ||----------------|
D||.-------------.||----------------|
A||.-------------.||----------------|
E|| -1--3--3--5-- ||-1--3--3--0-----|



G|------------------------------------------------|
D|---------------------------1-p---------1-p------|
A|-----------------3-0-p-----------1-p----------3-|
E|-p-------------1----------------------------1---|


G|--------------------------------------------------------|
D|-------------1-----------------------------1------------|
A|-0-0-0-0-0-0----0-0-0-0-0-0-1--0-0-0-0-0-0----0-0-0---3-|
E|----------------------------------------------------1---|

G|------------------------------------------------||
D|-------------1-----------------------------1----||
A|-0-0-0-0-0-0----0-0-0-0-0-0-1--0-0-0-0-0-0----0-||
E|------------------------------------------------||.

tabbed by Taz Mckell
Suggest correction
Give kudos to tab author, rate the tab!
1 2 3 4 5
comments
print report bad tab
guest
You may want to rate the tab now too:
select rating
Please do not post tabs as comments. Select "correction" instead!