Oops, an error
Loading. Please wait.

Burning Times Tab

1,529 views 6 this week
2 commentsread comments
1 2 3 4 5
accurate
x 3
add to favorites
launch autoscroll
font size
0
reset
how to read this tab
guitar tuner
Autoscroll
slow
fast
+/-
esc
set tempo
stop
Help us to improve Ultimate-Guitar.com Take our survey!
×
Burning times
-------------

Artist: Testament
Title: Burning Times
Album: Demonic
Transcribed by: Nikhil Nair 
Email: coolguitarist@hotmail.com



Drop 6th string 1 step from E to D

 . = palm mute
/ = slide up            \ = slide down
b = bend                r = relese bend
h = hammer on           p = pull off
<>= natural hormonic

-|--   --|- 
-|--   --|- 
-|*-   -*|- 
-|*-   -*|-  = repeat
-|--   --|- 
-|--   --|- 

Intro:
e|-------------------------------|------------------------------------|
B|-------------------------------|------------------------------------|
G|-------------------------------|------------------------------------|
D|--------------------------7--6-|-------------------------------7--6-|
A|-0-----------------0------7--6-|-0----5b6r5b6r5b6r5b6r5-0------7--6-|
D|-0-----------------0-----------|-0----------------------0-----------|
                                                                              

-|--------------------------------------|
-|--------------------------------------|
-|--------------------------------------|
-|--------------------------------------|
-|-5---------5---------7-----6----------|
-|-5--0-0-0--5--0-0-0--7-7-7-6--6-0-0-0-|
      . . .     . . .    . .    . . . .                                       

-|---------------------------------------------|
-|---------------------------------------------|
-|---------------------------------------------|
-|---------------------------------------------|
-|-6---------6---------------------------------|
-|-6--0-0-0--6--0-0-0--12\10/12\10/12\10/12\10-|
      . . .     . . .                                                         

-|---------------------------------------|------------------------------------|
-|---------------------------------------|------------------------------------|
-|---------------------------------------|------------------------------------|
-|---------------------------------------|---------------------5--3--5--6\----|
-|-5---------5---------------------------|---------------------5--3--5--6\----|
-|-5--0-0-0--5--0-0-0--7--7--7--10--7--6-|-7--0-0-0--7--0-0-0--5--3--5--6\-7\-|
      . . .     . . .                         . . .     . . .                 

-|------------------------------------------|
-|------------------------------------------|
-|------------------------------------------|
-|------------------------------------------|
-|-5---------5------------------------------|
-|-5--0-0-0--5--0-0-0--0--7-7--6--5--3-3--5-| 
 |    . . .     . . .                       | 2 guitars
-|-----------17-------16-----15h16p15---\13-|
-|-15---------------------------------------|
-|------------------------------------------| <-- w/ reverb and echo
-|------------------------------------------|
-|------------------------------------------|
-|------------------------------------------|

-|---------------------------------------------|
-|---------------------------------------------|
-|---------------------------------------------|
-|---------------------------------------------|
-|-6---------6---------------------------------|
-|-6--0-0-0--6--0-0-0--0--6-6-7--7/10--10--10--|
 |    . . .     . . .             	       | 2 guitars
-|-----------17-------16------15h16p15----/17--|
-|-15------------------------------------------|
-|---------------------------------------------|
-|---------------------------------------------| <-- w/ reverb and echo
-|---------------------------------------------|
-|---------------------------------------------|

-|------------------------------------------|
-|------------------------------------------|
-|------------------------------------------|
-|------------------------------------------|
-|-5---------5------------------------------|
-|-5--0-0-0--5--0-0-0--0--7-7--6--5--3-3--5-|
 |    . . .     . . .			    | 2 guitars
-|-----------17-------16-----15h16p15---\13-|
-|-15---------------------------------------|
-|------------------------------------------| <-- w/ reverb and echo
-|------------------------------------------|
-|------------------------------------------|
-|------------------------------------------|

-|--------------------------------|---------------------|
-|--------------------------------|---------------------|
-|--------------------------------|---------------------|
-|---------------------5--3--5--6-|---------------------|
-|-6---------6---------5--3--5--6-|-------0-------------|
-|-6--0-0-0--6--0-0-0--5--3--5--6-|-------0-------------|
 |    . . .     . . .		  |			 2 guitars
-|--------17-------15--13--15--16-|
-|-15-----------------------------|
-|--------------------------------| <-- w/ reverb and echo
-|--------------------------------|
-|--------------------------------|
-|--------------------------------|

-|---------------------------|-------------------------------|
-|---------------------------|-------------------------------|
-|*--------------------------|------------------------------*|
-|*--------------------------|------------------------------*|
-|---------------------------|-------------------------------|
-|-0-0--0-0-0--0-0-0-0-0-0-0-|-0-0-0--0-0-0--5-3-0-0-5-3-0-0-|
   . .  . . .  . . . . . . .   . . .  . . .  . . . . . . . .                  

verse:
  Back...
-|---------------------------|-------------------------------|
-|---------------------------|-------------------------------|
-|---------------------------|-------------------------------|
-|---------------------------|-------------------------------|
-|---------------------------|-------------------------------|
-|-0-0--0-0-0--0-0-0-0-0-0-0-|-0-0-0--0-0-0--5-3-0-0-5-3-0-0-|
   . .  . . .  . . . . . . .   . . .  . . .  . . . . . . . .  

				burn...
-|---------------------------|-------------------------|
-|---------------------------|-------------------------|
-|---------------------------|-------------------------|
-|---------------------------|-------------------------|
-|---------------------------|-------------/7--7--7--7-|
-|-0-0--0-0-0--0-0-0-0-0-0-0-|-0-0--0-0-7\-/7--7--7--7-|
   . .  . . .  . . . . . . .   . .  . .                                       

-|---------------------------|--------------------------------|
-|---------------------------|--------------------------------|
-|---------------------------|--------------------------------|
-|---------------------------|--------------------------------|
-|---------------------------|--------------------------------|
-|-0-0--0-0-0--0-0-0-0-0-0-0-|--0-0-0--0-0-0--5-3-0-0-5-3-0-0-|
   . .  . . .  . . . . . . .    . . .  . . .  . . . . . . . .                 
	
  			       children cry...	                    children crying...
-|---------------------------|-------------------------|--------------------------|
-|---------------------------|-------------------------|--------------------------|
-|---------------------------|-------------------------|--------------------------|
-|---------------------------|-------------------------|--------------------------|
-|---------------------------|-------------/7--7--7--7-|--------------------------|
-|-0-0--0-0-0--0-0-0-0-0-0-0-|-0-0--0-0----/7--7--7--7-|-0-0-0--0-0-0--6--6--6--6-|
   . .  . . .  . . . . . . .   . .  . .                  . . .  . . .

			                   mothers dying...
-|--------------------------|--------------------------|
-|--------------------------|--------------------------|
-|--------------------------|--------------------------|
-|--------------------------|--------------------------|
-|--------------------------|--------------------------|
-|-0-0-0--0-0-0--7--7--7--7-|-0-0-0--0-0-0--6--6--6--6-|
   . . .  . . .               . . .  . . .                                    

-|--------------------------|
-|--------------------------|
-|--------------------------|
-|--------------------------|
-|--------------------------|
-|-0-0-0-0-0-0-0-0-0-0-0-0--|
 | . . . . . . . . . . . .  |  
 |			    | 2 guitars
-|--------------------------|
-|--------------------------|
-|--------------------------|
-|--------------------------|
-|--------------/7--7--7--7-|                                                        
-|--------------/7--7--7--7-|
     

  some would...
-|---------------------------|-------------------------------|
-|---------------------------|-------------------------------|
-|*--------------------------|-------------------------------|
-|*--------------------------|-------------------------------|
-|---------------------------|-------------------------------|
-|-0-0--0-0-0--0-0-0-0-0-0-0-|-0-0-0--0-0-0--5-3-0-0-5-3-0-0-|
   . .  . . .  . . . . . . .   . . .  . . .  . . . . . . . .  

-|---------------------------|-------------------------|
-|---------------------------|-------------------------|
-|---------------------------|------------------------*|
-|---------------------------|------------------------*|
-|---------------------------|-------------/7--7--7--7-|
-|-0-0--0-0-0--0-0-0-0-0-0-0-|-0-0--0-0-7\-/7--7--7--7-|
   . .  . . .  . . . . . . .   . .  . .

After this it gets tough so i didn't try too hard to figure it out...
But this is what I think it is.

   why? they don't....
-|---------------------------------|
-|---------------------------------|
-|*-------------------------------*| x4
-|*-------------------------------*|   
-|---------------------------------|
-|-7-6-4-4-4-4-6-5-4-4-4-4--5---4--|
   . . . . . . . . . . . .  .   . 
				^------last time skip this note

			  caught in the...
-|------------------------------------------|
-|------------------------------------------|
-|------------------------------------------|
-|------------------------------------------|
-|-5---------5------------------------------|
-|-5--0-0-0--5--0-0-0--0--7-7--6--5--3-3--5-| 
 |    . . .     . . .                       | 2 guitars
-|-----------17-------16-----15h16p15---\13-|
-|-15---------------------------------------|
-|------------------------------------------| <-- w/ reverb and echo
-|------------------------------------------|
-|------------------------------------------|
-|------------------------------------------|

-|---------------------------------------------|
-|---------------------------------------------|
-|---------------------------------------------|
-|---------------------------------------------|
-|-6---------6---------------------------------|
-|-6--0-0-0--6--0-0-0--0--6-6-7--7/10--10--10--|
 |    . . .     . . .             	       | 2 guitars
-|-----------17-------16------15h16p15----/17--|
-|-15------------------------------------------|
-|---------------------------------------------|
-|---------------------------------------------| <-- w/ reverb and echo
-|---------------------------------------------|
-|---------------------------------------------|

-|------------------------------------------------|
-|------------------------------------------------|
-|------------------------------------------------|
-|------------------------------------------------|
-|------------------------------------------------|
-|-5--6--0-0-0--6--6--0-0-0--0--7-7--6--5--3-3--5-|
 | .  .  . . .  .  .  . . .			  | 2 guitars
-|-----------17-------16-----15-h-16-p-15-----\13-|
-|-15---------------------------------------------|
-|------------------------------------------------| <-- w/ reverb and echo
-|------------------------------------------------|
-|------------------------------------------------|
-|------------------------------------------------|

-|--------------------------------|
-|--------------------------------|
-|--------------------------------|
-|---------------------5--3--5--6-|
-|-6---------6---------5--3--5--6-|
-|-6--0-0-0--6--0-0-0--5--3--5--6-|
 |    . . .     . . .		  |  2 guitars
-|--------17-------15--13--15--16-|
-|-15-----------------------------|
-|--------------------------------| <-- w/ reverb and echo
-|--------------------------------|
-|--------------------------------|
-|--------------------------------|


-|---------------------------|-------------------------------|
-|---------------------------|-------------------------------|
-|---------------------------|-------------------------------|
-|---------------------------|-------------------------------|
-|---------------------------|-------------------------------|
-|-0-0--0-0-0--0-0-0-0-0-0-0-|-0-0-0--0-0-0--5-3-0-0-5-3-0-0-|
   . .  . . .  . . . . . . .   . . .  . . .  . . . . . . . .  

				
-|---------------------------|-------------------------|
-|---------------------------|-------------------------|
-|---------------------------|-------------------------|
-|---------------------------|-------------------------|
-|---------------------------|-------------/7--7--7--7-|
-|-0-0--0-0-0--0-0-0-0-0-0-0-|-0-0--0-0-7\-/7--7--7--7-|
   . .  . . .  . . . . . . .   . .  . .                                       

verse:
   some say...
-|---------------------------|-------------------------------|
-|---------------------------|-------------------------------|
-|*--------------------------|-------------------------------|
-|*--------------------------|-------------------------------|
-|---------------------------|-------------------------------|
-|-0-0--0-0-0--0-0-0-0-0-0-0-|-0-0-0--0-0-0--5-3-0-0-5-3-0-0-|
   . .  . . .  . . . . . . .   . . .  . . .  . . . . . . . .  

				
-|---------------------------|-------------------------|
-|---------------------------|-------------------------|
-|---------------------------|------------------------*|
-|---------------------------|------------------------*|
-|---------------------------|-------------/7--7--7--7-|
-|-0-0--0-0-0--0-0-0-0-0-0-0-|-0-0--0-0-7\-/7--7--7--7-|
   . .  . . .  . . . . . . .   . .  . .   

   why? they don't....
-|---------------------------------|
-|---------------------------------|
-|*-------------------------------*| x7
-|*-------------------------------*|   
-|---------------------------------|
-|-7-6-4-4-4-4-6-5-4-4-4-4--5---4--|
   . . . . . . . . . . . .  .   . 

 again, here he play something fast and i don't know what it is...


Later they play a small solo, and here is how it goes...

-|-------------------------------------------------------------|
-|-------------------------------------------------------------|
-|-------------------------------------------------------------|
-|-/8-----11--10\8--7---------/11--10--8--8----11--10--11--14--|
-|---------------------8-8-------------------------------------|
-|-------------------------------------------------------------|


-|--------------------------------------------------------------|
-|--------------------------------------------------------------|
-|--------------------------------------------------------------|
-|-/8-----11--10\8--7---------/11--10--8--8----11--10--11--<9>--|
-|---------------------8-8--------------------------------------|
-|--------------------------------------------------------------|
						           pull whammy bar
							   up slowly

now he plays loads of harmonics and stuff

figure the rest out on your own...I've done most of the difficult stuff
comments
We did not receive enough feedback on this tab! Please rate:
print report bad tab
1 2 3 4 5
2 comments total.
0 reply
barcode 33 wrote on October 31 2006, 12:18 am

some of the songs on the album might be lower than drop D, but this song IS drop D. this is a pretty good tab.

0 reply
METALUPYOURASS3 12 wrote on October 12 2015, 02:47 am

tuned to drop opposed to standard D and pretty much everything is wrong aside from the chugging part which is just alternate picked opens :/

I want to post or [tab]
guest
You may want to rate the tab now too:
select rating
Please do not post tabs as comments. Select "correction" instead!