Oops, an error
Loading. Please wait.

Careful What You Wish For Tab

version 1
version 1

Whole song

Interactive

2,276 views 3 this week
no commentswrite comment
1 2 3 4 5
please rate
add to favorites
launch autoscroll
font size
0
reset
how to read this tab
guitar tuner
Autoscroll
slow
fast
+/-
esc
set tempo
stop
Help us to improve Ultimate-Guitar.com Take our survey!
×
Author
‘Careful What You Wish For’
Testament


Tuning: C# Standard (From thickest string to thinnest: C# F# B E G# C#)


- = palm-mute

5/9\7 = slide

5h7 = hammer-on

9p7 = pull-off

ph = pinch harmonic


Intro:


  Gtr 1
|-----------------------------------|
|-----------------------------------|
|-----------------------------------|
|------7/9-9---Repeat X16-----------|
|------5/7-7------------------------|
|-0-0-----------------------0-0-0-0-|
| - -                       - - - -
|
| Gtr 2 (Enters on the 8th repeat)
|-----------------------------------|
|-----------------------------------|
|-----------------------------------|
|------7/9-9---Repeat X8------------|
|------5/7-7------------------------|
|-0-0-----------------------0-0-0-0-|
  - -                       - - - -

  
  Gtr 1
|------------------------------------------------------------|
|------------------------------------------------------------|
|------------------------------------------------------------|
|-------------4/5-4--------------------------------5---------|
|-2---4---5---2/3-2----4---5---7/8-7----4---5------3------4--| 
|-0-0-2-0-3-0--------0-2-0-3-0-5/6-5--0-2-0-3--000----000-2--|
|   -   -   -        -   -   -        -   -    ---    ---
|
| Gtr 2 
|------------------------------------------------------------|
|------------------------------------------------------------|
|------------------------------------------------------------|
|--------------------------------------------------5---------|
|-2------------------------------------------------3------4--| 
|-0--------------------------------------------000----000-2--|
                                               ---    ---


  Gtr 1
|------------------------------------------------------------|
|------------------------------------------------------------|
|------------------------------------------------------------|
|-------------4/5-4--------------------------------5---------|
|-2---4---5---2/3-2----4---5---7/8-7---------------3------4--| 
|-0-0-2-0-3-0--------0-2-0-3-0-5/6-5-----------0-0----0-0-2--|
|   -   -   -        -   -   -                 - -    - -
|
| Gtr 2 
|------------------------------------------------------------|
|------------------------------------------------------------|
|------------------------------------------------------------|
|--------------------------------------------------5---------|
|-2-------------2--------------7/8-7---------------3------4--| 
|-0-------------0------------0-5/6-5-----------0-0----0-0-2--|
                             -                 - -    - -

  
  Gtr 1
|------------------------------------------------------------|
|-----------------------Repeat X2----------------------------|
|------------------------------------------------------------|
|-------------4/5-4--------------------------------5---------|
|-2---4---5---2/3-2----4---5---7/8-7----4---5------3------4--| 
|-0-0-2-0-3-0--------0-2-0-3-0-5/6-5--0-2-0-3--0-0----0-0-2--|
|   -   -   -        -   -   -        -   -    - -    - -
| 
| Gtr 2 (Enter on second repeat)
|------------------------------------------------------------|
|------------------------------------------------------------|
|------------------12---------12--14-14p12----12h14-14--14---|
|--14p12----12--14-----14--14--------------14----------------|
|-------14---------------------------------------------------| 
|------------------------------------------------------------|
|
|------------------------------------------------------------|
|------------------------------------------------------------|
|--12h1412---------------------------------------------------|
|----------12h14p12------------------------------------------|
|-------------------14-13ph----------------------------------| 
|------------------------------------------------------------|




Verses 1 & 2:

Gtr 1 & 2
|------------------------------------------------------------|
|------------------------------------------------------------|
|------------------------------------------------------------|
|-------------4/5-4--------------------------------5---------|
|-2---4---5---2/3-2----4---5---7/8-7----4---5------3------4--| 
|-0-0-2-0-3-0--------0-2-0-3-0-5/6-5--0-2-0-3--0-0----0-0-2--|
|   -   -   -        -   -   -        -   -    - -    - -
|
| Grace, in a perfect world . . .   On shines the light


|------------------------------------------------------------|
|------------------------------------------------------------|
|------------------------------------------------------------|
|-------------4/5-4--------------------------------5---------|
|-2---4---5---2/3-2----4---5---7/8-7----4---5------3------4--| 
|-0-0-2-0-3-0--------0-2-0-3-0-5/6-5--0-2-0-3--0-0----0-0-2--|
|   -   -   -        -   -   -        -   -    - -    - -
|
| Praise, an angelic song . . . But there’s another side, you’ll see  


|-----------------------------------------|
|-----------------------------------------|
|-----------------------------------------|
|-----------------------------------------|
|-2---4---5-----------2---4---5-----------| 
|-0-0-2-0-3--0-0-0-0--0-0-2-0-3--0-0-0-0--|
|   -   -    - - - -    -   -    - - - -
|
| Now . . .            Hide . . .  


|-----------------------------------------|
|-----------------------------------------|
|-----------------------------------------|
|-----------------5-----------------------|
|-2---4---5-------3-------4---------------| 
|-0-0-2-0-3--0-0-----0-0—-2--0-0-0-0------|
|   -   -    - -     - -     - - - -
|
| Salvation,  easily  denied  



Verses 3 & 4: 


|--------------------------------------------------------------|
|-----------------------Repeat X4------------------------------|
|--------------------------------------------------------------|
|---------7/8\7------------------------7/8\7--------10---------|
|---2-----5/6\5----7/8\7----------2----5/6\5----7/8-8----------| 
|-0-0---0--------0-5/6\5--0-0-0-0-0--0--------0-5/6----0-0-0-0-|
| -     -        -        - - - -    -        -        - - - -

Hey . . .                We live in a f*cked up world…



Main Solo Rhythm:

|-----------------------------------------|
|--------------Repeat X4------------------|
|-----------------------------------------|
|-----------------------------------------|
|-2---4---5-----------2---4---5-----------| 
|-0-0-2-0-3--0-0-0-0--0-0-2-0-3--0-0-0-0--|
|   -   -    - - - -    -   -    - - - -


Outro:

Gtr 1
|-----------------------------------|
|-----------------------------------|
|-----------------------------------|
|------7/9-9---Repeat X24-----------|
|------5/7-7------------------------|
|-0-0-----------------------0-0-0-0-|
| - -                       - - - -
|
| Gtr 2 (Enters on the 8th repeat)
|-----------------------------------|
|-----------------------------------|
|-----------------------------------|
|------7/9-9---Repeat X16-----------|
|------5/7-7------------------------|
|-0-0-----------------------0-0-0-0-|
  - -                       - - - -


Lyrics:


(Verse 1)
Grace - in a perfect world 
On shines the light 
Praise - an angelic song 
but there's another side you'll see 
Now hide 
salvation easily denied 

(Verse 2)
Reigns - Down with misery 
Life's not always what it seems 
False hope 
written in the testament of old 
Take heed 
stop believing everyword you read 
Truth inconsistencies 
Distorts the lie 
False imprisonment 
Forever lost inside your mind 
Fates door 
Just be careful what you wish for 
Death's door 
Just be careful what you wish for 

(Bridge)
Peace of mind I can't find 
Don't be blind take the ride 

(Verse 3)
Hey... we live in a f*cked up world 
Walking on through the demise 
We step into the unknown 
Your better save yourself... 

(Verse 4)
Hey... we live in a f*cked up world 
Hiding behind the disguise 
Never let your feelings show 
Why can't you be yourself... 
We live in a f*cked up world 
Walking on through the demise 
We step into the unknown 
Your better save yourself...

Suggest correction
Give kudos to tab author, rate the tab!
1 2 3 4 5
comments
print report bad tab
guest
You may want to rate the tab now too:
select rating
Wanna post a correction for this tab? Suggest correction