Oops, an error
Loading. Please wait.

Confusion Fusion Bass Tab

version 1
version 1

Whole song

Interactive

1,076 views 3 this week
no commentswrite comment
1 2 3 4 5
3 more votes to show rating
add to favorites
launch autoscroll
font size
0
reset
guitar tuner
Autoscroll
slow
fast
+/-
esc
set tempo
stop
Help us to improve Ultimate-Guitar.com Take our survey!
×
Author
Difficulty
intermediate
u figure out were every thing goes it easy to figure it out so yea 
just listent to the song a few times and there u go confusion fusion!!!!!!!!!

this tab took hella long so dont b gay and cast it out
OR ELSE METAL UP UR ARS!!!!!!!!!!!!
yea this is another from bassmasta of mine ahahaha

TUNE UP 1 STEP or standerd
|----------------------------------------|
|----------------------------------------|
|--0h2-2-2-2-2-2--1--0h2-2-2-2-2-2-2p0-0-|
|----------------------------------------|

|-------------------------------------6------|
|--------6-----5--5-5-5-5-5-5-5-----5--------|
|-----5--------------------------4-----------|
|---4----------------------------------------|

|----------------------------------------|
|----------------------------------------|
|--0h2-2-2-2-2-2--1--0h2-2-2-2-2-2-2p0-0-|
|----------------------------------------|


|----------------------------------------------|
|--------6-----5--5-5-5-5-5-5-5------6---------|
|-----5----------------------------5-----5---8-|
|---4----------------------------4-------------|

|--------------------------|----------------------------|----|
|--------------------------|----------------------------|----|
|6-6-6-6-6-6-6----7----4-4-|--6-6-6-6-6-6-6-6---7---4-4-|6-6-|
|--------------------------|----------------------------|----|

|--------------------|-----------------|
|--------------------|-----------------|
|6-6-6-6-6-6-6-7-4-4-|-6--7--8--9--10--|
|--------------------|-----------------|

|-----------------4-----------------7--------------------|
|--------6-----6-----------6-----6-----------6-----6-----|
|-----6-----5-----------6-----7-----------6-----7--------|                   
|--4-----------------4-----------------4-----------------|
            
|---4-----------------6-----------------4---------------------------|
|------------6-----------------6-----6-----------6-----9p6----------|
|---------6-----6--5--------6-----5-----------6-----7----------6----|
|------4-----------------4-----------------4----------------4-------|

|------------7-----------------------|----------------------|
|---6-----6-----------6-----5--8--6--|----------------2-----|
|------7-----------6-----6-----------|--4--4--4--4------2---|               
|---------------4--------------------|----------------------|

|------------------------------------------------------------------|
|----------------------------2-------------------------------------|
|---3-----4--4--4--4--4--4--------3-----0-----4--4--4--4--4--4-----|
|------------------------------------------------------------------|


|-------------------------------------------------------------------|
|---------------------------2---------------------------------------|
|---3-----4--4--4--4--4--4--------3-----0-----4--4--4--4--4--4------|
|-------------------------------------------------------------------|

|------------------------------------------------------|
|---2-----------------------------------4-----7-----6--|
|---------2-----3-----4--4--4--4--4--4-----------------|
|------------------------------------------------------|

|------------------------------------------------------|
|---2-----------------------------------4-----7-----6--|
|---------2-----3-----4--4--4--4--4--4-----------------|
|------------------------------------------------------|


Brought to you by the BassMasta
http://www.bassmasta.net/t/testament/162662.html
Suggest correction
Give kudos to tab author, rate the tab!
1 2 3 4 5
comments
print report bad tab
guest
You may want to rate the tab now too:
select rating
Wanna post a correction for this tab? Suggest correction