Oops, an error
Loading. Please wait.

Dangers Of The Faithless Tab

version 1
version 1

Intro

Whole song

1,849 views 3 this week
1 commentread comment
1 2 3 4 5
2 more votes to show rating
add to favorites
launch autoscroll
font size
0
reset
how to read this tab
guitar tuner
Autoscroll
slow
fast
+/-
esc
set tempo
stop
Help us to improve Ultimate-Guitar.com Take our survey!
×
Author
-------------------------------------------------------------------------------
                             Dangers of the Faithless - Testament
                      From the Album: Formation of the Damnation 2008
-------------------------------------------------------------------------------
Tabbed by: Antonio
Email: sheepboy2006@hotmail.com

Tuning: half step down: from low to high: D# G# C# F# A# D#
Hey  i thought i would just add the intro to this great song from what i know from ear. 
will try to do the rest ASAP. Enjoy


d#|----------------|---------------------------------------------|-----------|
A#|----------------|---------------------------------------------|-----------|
F#|----------------|-------9---12---11------7---9---6------4-----|-----------|
C#|----------------|-------x---x----x-------x---x---x------x---5-|-----------|
G#|-------------2-2|2------7---10---9-------5---7---4------2---x-|-2---------|
D#|-------------0-0|0------------------------------------------3-|-0---------|

d#|--------------------------------------------------------------------------|
A#|--------------------------------------------------------------------------|
F#|---9---12---11-----7---9---4------4---------------------------------------|
C#|---x---x----x------x---x---x------x---5-----------------------------------|
G#|---7---10---9------5---7---6------2---x----2------------------------------|
D#|--------------------------------------3----0------------------------------|

*Add some slides to and from each octave chord to really give it that Testament metal feel

Like i said just a bit jotted down from ear, but i will add more very soon!

| /  slide up
| \  slide down
| h  hammer-on
| p  pull-off
| ~  vibrator
| +  harmonic
| x  Mute note
===============================================================================
Suggest correction
Give kudos to tab author, rate the tab!
1 2 3 4 5
comments
print report bad tab
1 comment total.
+1 reply
Th6r6a6sH 91 Feb 07, 2010 04:51 PM

Here's some more for you

first harmony change


|-------------------------------|
|-------------------------------|
|-------------------------------|
|-------------------------------|
|----10-14-12--9-10-12--10-9-7--|
|-(0)---------------------------|

second harmony change

|--------------------------|
|-------12-11--------------|
|----12-------11-14-12-9---|
|------------------------9-|
|--------------------------|
|-(0)----------------------|


That's just what it sounds like to me right now, please refine and include in your next update to this tab.

Keep it up, bro.

guest
You may want to rate the tab now too:
select rating
Wanna post a correction for this tab? Suggest correction