Oops, an error
Loading. Please wait.

Down For Life Tab

version 1
version 1

Whole song

Interactive

6,003 views 3 this week
no commentswrite comment
1 2 3 4 5
please rate
add to favorites
launch autoscroll
font size
0
reset
how to read this tab
guitar tuner
Autoscroll
slow
fast
+/-
esc
set tempo
stop
Help us to improve Ultimate-Guitar.com Take our survey!
×
                    TESTAMENT - DOWN FOR LIFE 
                  From the Album - THE GATHERING 
                 Copyright: SPITFIRE RECORDS 1999
                   Version 2.0 - Febuary, 2002 

Transcribed By: John McNeal (Souls of Black) 

For Questions, Comments, Newest Version, Corrections or Request;
Contact Souls of Black: at Lynching@aol.com 

Tune Down 1 and 1/2 Steps

Intro (Play Once)

Riff 1a (Guitar 1)                                  
|----------------------------------|
|----------------------------------|
|----------------------------------|
|----------------------------------|
|-2-----2-----2-----2------5/7-7/8-|
|-0-0-0-0-0-0-0-0-0-0-0-0--3/5-5/6-|
    . .   . .   . .   . .                 
|----------------------------------------|
|----------------------------------------|
|----------------------------------------|
|----------------------------------------|
|-2-----2-----2-----2------8\7---7-7/8---|
|-0-0-0-0-0-0-0-0-0-0-0-0--6\5-0-5-5/6---|
    . .   . .   . .   . .      .
|-------------------------------------------------|
|-------------------------------------------------|
|-------------------------------------------------|
|-------------------------------------------------|
|-2-----2-----2-----2------5/7-7/8--2-----2-----2-|
|-0-0-0-0-0-0-0-0-0-0-0-0--3/5-5/6--0-0-0-0-0-0-0-|
    . .   . .   . .   . .             . .   . .      

Riff 1b (Guitar 2) (play with Riff 1a at the same time)

|----------------------------------|
|----------------------------------|
|----------------------------------|
|----------------------------------|
|-2------------------------5/7-7/8-|
|-0------------------------3/5-5/6-|
                     
|----------------------------------------|
|----------------------------------------|
|----------------------------------------|
|----------------------------------------|
|-2------------------------8\7---7-7/8---|
|-0------------------------6\5-0-5-5/6---|
                               .
|-------------------------------------------------|
|-------------------------------------------------|
|-------------------------------------------------|
|-------------------------------------------------|
|-2-----2-----2-----2------5/7-7/8--2-----2-----2-|
|-0-----0-----0-----0------3/5-5/6--0-----0-----0-|
    


Verse 

Riff 2
                              1,3          2,4
|-------------------------|---------|--------------|
|-------------------------|---------|--------------|
|-------------------------|---------|--------------|
|-------------------------|---------|--------------|
|-2-----2-----2-----2-----|-5/7-7/8-|-8\7---7-7/8--|
|-0-0-0-0-0-0-0-0-0-0-0-0-|-3/5-5/6-|-6\5-0-5-5/6--|
    . .   . .   . .   . .                 .

Riff 3
|---------------------------------------------------------------|
|---------------------------------------------------------------|
|---------------------------------------------------------------|
|---------------------------------------------------------------| 
|---8\7---7/8---8\7---7/8---8\7---8\7---8/7--11\10-10\9---7/8---| 
|-0-6\5-0-5/6-0-6\5-0-5/6-0-6\5-0-6\5-0-5/6-0-9\8-0-8\7-0-5/6-0-|
  .     .     .     .     .     .     .     .     .     .     .

Chorus

Riff 4a (Guitar 1)
                                                           
                              1    2
|---------------------------|---|-----|
|---------------------------|---|-----|
|---------------------------|---|-----|
|---------------------------|---|-3---|
|-----5h7---5h7---5h7---5h7-|-3-|-1-3-|
|-0-0-----0-----0-----0-----|-1-|---1-| 
  . .     .     .     .
|---------------------------------------|
|---------------------------------------|
|---------------------------------------|
|---------------------------------------|
|-----5h7---5h7---5h7---5h7--3----2-2-2-|
|-0-0-----0-----0-----0------1----0-0-0-| 
  . .     .     .     .           . .

Riff 4b (Guitar 2) (Play with Riff 4a)

                              1    2
|---------------------------|---|-----|
|---------------------------|---|-----|
|---------------------------|---|-----|
|---------------------------|---|-3---|
|---------------------------|-3-|-1-3-|
|---------------------------|-1-|---1-| 

|---------------------------------------|
|---------------------------------------|
|---------------------------------------|
|----------------------------3----------|
|-2-------2-----2-----2------3----2-2-2-|
|-0-------0-----0-----0------1-/7-0-0-0-| 
                                  . .                                 

Bridge

Riff 5 (Both Guitars) 
                             1,3  2,4
|---------------------------|---|-----|
|---------------------------|---|-----|
|---------------------------|---|-----|
|---------------------------|---|-3---|
|-----5h7---5h7---5h7---5h7-|-3-|-1-3-|
|-0-0-----0-----0-----0-----|-1-|---1-| 
  . .     .     .     .

Riff 6
|--------------------------------|
|--------------------------------|
|--------------------------------|
|--------10-9-8---------3--------|
|-2-------8-7-6-3-------1-----3--|
|-0-------------1---0-0---0-0-1--|
                    . .   . .
Riff 7
|------------------------------------|
|------------------------------------|
|------------------------------------|
|----------------3------------3------|
|----------------1------------1----3-|
|-000-000-000-00---000-000-00---00-1-|
  ... ... ... ..   ... ... ..   ..
|------|
|------|
|------|  (Hold this note and do a slide,
|-2----|     leading into the next verse)
|-2----|
|-0----|

Outro
(Guitar 1)
                              1    2
|---------------------------|---|-----|
|---------------------------|---|-----|
|---------------------------|---|-----|
|---------------------------|---|-3---|
|-----5h7---5h7---5h7---5h7-|-3-|-1-3-|
|-0-0-----0-----0-----0-----|-1-|---1-| 
  . .     .     .     .
|---------------------------------------|
|---------------------------------------|
|---------------------------------------|
|---------------------------------------|
|-----5h7---5h7---5h7---5h7--3--------2-|
|-0-0-----0-----0-----0------1----0-0-0-| 
  . .     .     .     .           . .

(Guitar 2) 
                              1    2
|---------------------------|---|-----|
|---------------------------|---|-----|
|---------------------------|---|-----|
|---------------------------|---|-3---|
|---------------------------|-3-|-1-3-|
|---------------------------|-1-|---1-| 

|---------------------------------------|
|---------------------------------------|
|---------------------------------------|
|----------------------------3----------|
|-2-------2-----2-----2------3--------2-|
|-0-------0-----0-----0------1----0-0-0-| 
                                  . .
Suggest correction
Give kudos to tab author, rate the tab!
1 2 3 4 5
comments
print report bad tab
guest
You may want to rate the tab now too:
select rating
Please do not post tabs as comments. Select "correction" instead!