Oops, an error
Loading. Please wait.

John Doe Tab

1,737 views 3 this week
3 commentsread comments
1 2 3 4 5
1 last vote to show rating
add to favorites
launch autoscroll
font size
0
reset
how to read this tab
guitar tuner
Autoscroll
slow
fast
+/-
esc
set tempo
stop
/ The following is the author's own interpretation of the song, to be used -
/ for studying or private use only, removal of any part of this ten line   -
/ header is illegal!!!  Removal of the transcribers name or anything       -
/ relevant to the transcriber is also illegal, as so is the removal of the -
/ place inwhich the tab was downloaded. Publishing as well as printing of  -
/ the tab is illegal without permission of the transcriber and copyright   -
/ owner of the song. Failure to apply to these laws result will in legal   -
/ action from the appropriate parties.                                     -



/join.htm

Author/Artist: Testament
Title: John Doe
Album: Demonic
Transcribed by: Nikhil Nair
Corrections by: God of War
Email: coolguitarist@hotmail.com

Legend:

... = palm mute
~   = let ring
v   = vibrato
p   = pull
h   = hammer on
<>  = artificial harmonic

***I KNOW YOUR NOT SUPPOSED TO DO THIS BUT OUT OF LAZYINESS IM JUST GONNA
CORRECT THE TAB AS IS SO HERE IT GOES, AND IF THERE IS A BIG PROBLEM WITH
THIS FROM ANYONE I CAN JUST REMAKE THE TAB BUT IM LAZY***

JOHN DOE from the album DEMONIC
-------------------------------
Tuning: drop 6th to D

intro
-|-------------------------|-----|------------------------|---------------
-|-------------------------|-----|------------------------|---------------
-|*-----------------------*|-----|------------------------|---------------
-|*-----------------------*|-x2--|------------------------|---------------
-|--0--1--2--3---5-6-3-----|-----|--0--1--2-2--3---5-6-3--|---------------
-|--0--1--2--3---5-6-3-----|-----|--0--1--2-2--3---5-6-3--|---------------
                 . . .                             . . .                  
2nd time accompany for above
-|--------------|--------------|------------------------------------------
-|--2---whammy--|--4---whammy--|------------------------------------------
-|--2---bar-----|--4---bar-----|------------------------------------------
-|--2---pull----|--4---pull----|------------------------------------------
-|------(slow)--|------(slow)--|------------------------------------------
-|--------------|--------------|------------------------------------------
                                                                              

-|-9-----9-----9-----9-----|-4---4---4---4---|-----------------|--------------
-|-12b14-12b14-12b14-12b14-|-7b9-7b9-7b9-7b9-|-4b6-4b6-4b6-4b6-|--------------
-|-------------------------|-----------------|-----------------|--------------
-|-------------------------|-----------------|-----------------|--------------
-|-------------------------|-----------------|-----------------|--------------
-|-------------------------|-----------------|-----------------|--------------
                                                                              

-|-------------------|--------------------------------------------------------
-|-------------------|--------------------------------------------------------
-|--9v-<9>v-<9>v--7--|--------------------------------------------------------
-|-------------------|--------------------------------------------------------
-|-------------------|--------------------------------------------------------
-|-------------------|--------------------------------------------------------

verse                                                                              
-|------------|----|----------|------------|----|-------------|---------------
-|------------|----|----------|------------|----|-------------|---------------
-|*----------*|----|----------|*----------*|----|-------------|---------------
-|*----------*|-x3-|----------|*----------*|-x3-|-------------|---------------
-|------------|----|--4b5-4b5-|------------|----|-------------|---------------
-|-0--0-5-6-3-|----|----------|-0--0-5-6-3-|----|-<1>v--<1>v--|---------------
   .  . . . .                   .  . . . .                                                         

-|------------|----|-------|--------------------------------------------------
-|------------|----|-------|--------------------------------------------------
-|*----------*|----|-------|--------------------------------------------------
-|*----------*|-x3-|-3p2h3-|--------------------------------------------------
-|------------|----|-------|-0-3-0-5-6---0-3-3-0-6-5-3---0-3-0-5-6---3-3-0----
-|-0--0-5-6-3-|----|-------|-0-3-0-5-6---0-3-3-0-6-5-3---0-3-0-5-6---3-3-0----
   .  . . . .                                                                           
-|-----------------------|-----------------------
-|-----------------------|-----------------------
-|-----------------------|-----------------------
-|-----------------------|-----------------------
-|--5-4-3~~~-------------|-----------------------
-|-----------------------|-----------------------
Suggest correction
Give kudos to tab author, rate the tab!
1 2 3 4 5
comments
print report bad tab
3 comments total.
0 reply
happy strummer 10 Sep 23, 2007 10:55 AM

not very organized at all...hard to follow
plus what i could follow was obviously wrong

0 reply
isabellejoosten 10 Jul 11, 2014 03:57 AM

Lack of formatting. Clearly wrong.

0 reply
isabellejoosten 10 Jul 11, 2014 03:57 AM

Lack of formatting. Clearly wrong.

guest
Wanna post a correction for this tab? Suggest correction