Oops, an error
Loading. Please wait.

Last Call Bass Tab

version 1
version 1

Whole song

Interactive

238 views 1 this week
no commentswrite comment
1 2 3 4 5
please rate
add to favorites
launch autoscroll
font size
0
reset
guitar tuner
Autoscroll
slow
fast
+/-
esc
set tempo
stop
Help us to improve Ultimate-Guitar.com Take our survey!
×
Contributor
Difficulty
bassplaya53 2,537
intermediate
[---------||-------------------|-------------------|-------------------]
[---------||-------------------|-------------------|-------------------]
[---------||----------7----57-5|-7--5-----5--------|-------------------]
[---------||-0-----0-0---------|-------7-----8--7--|-5----35-35--0--3--]

  
[-------------------|-------------------|-------------------]
[-------------------|-------9-----7--5--|----------7--------]
[-------------------|-7--------7--------|-7--------------7--]
[-5-----0--3--5--7--|-------------------|-------------------]

  
[-------------------|----------|----------9--7--5--|-------------------]
[-------------------|----------|-------------------|-9--7--5-----------]
[-6--------6----46-4|-7--------|-------------------|----------9--7--5--]
[-------------------|----------|-0-----------------|-------------------]

  
[-------------------|-------------------|-------------------]
[-------------------|-------------------|-------------7--5--]
[-------------------|----------------5--|-7----77-77--------]
[-5----35-35--0--3--|-5--0--3--5--7-----|-------------------]

  
[-------------------|-------------------|----------------]
[----7--5-----------|-------------------|----------------]
[-7--------7--5-----|-6--------6----46-4|-7-----7--------]
[----------------7--|-------------------|----------------]

  
[-------------------|-------9--7--5-----|-------------------]
[-------------------|----------------9--|-7-----------7--5--]
[----------7--5-----|-7-----------------|-------------------]
[-0-----0--------7--|-------------------|----------0--------]

  
[-------------------|-------------------|-------------------]
[-------------------|-------------------|----7--5-----------]
[-7--5-----------5--|-7----77-77----77-7|-7--------7--5-----]
[-------7--5--7-----|-------------------|----------------7--]

  
[-------------------|-------------------||
[-------------------|-------------------||
[-6--------6----46-4|-7-----------------||
[-------------------|-------------------||

  
[-------------------|-------------------|-------------------]
[-------------------|-------------------|-------------------]
[----------7----57-5|-7--5-----5--------|-------------------]
[-0-----0-0---------|-------7-----8--7--|-5----35-35--0--3--]

  1  2  3  4  5  6    1  2  3  4  5  6    1  2  3  4  5  6
[-------------------|-------------------|-------------------]
[-------------------|-------9-----7--5--|----------7--------]
[-------------------|-7--------7--------|-7--------------7--]
[-5-----0--3--5--7--|-------------------|-------------------]

  
[-------------------|----------|----------9--7--5--|-------------------]
[-------------------|----------|-------------------|-9--7--5-----------]
[-6--------6----46-4|-7--------|-------------------|----------9--7--5--]
[-------------------|----------|-0-----------------|-------------------]

  
[-------------------|-------------------|-------------------]
[-------------------|-------------------|-------------7--5--]
[-------------------|----------------5--|-7----77-77--------]
[-5----35-35--0--3--|-5--0--3--5--7-----|-------------------]


[-------------------|-------------------|----------------]
[----7--5-----------|-------------------|----------------]
[-7--------7--5-----|-6--------6----46-4|-7-----7--------]
[----------------7--|-------------------|----------------]

  
[-------------------|-------9--7--5-----|-------------------]
[-------------------|----------------9--|-7-----------7--5--]
[----------7--5-----|-7-----------------|-------------------]
[-0-----0--------7--|-------------------|----------0--------]

  
[-------------------|-------------------|-------------------]
[-------------------|-------------------|----7--5-----------]
[-7--5-----------5--|-7----77-77----77-7|-7--------7--5-----]
[-------7--5--7-----|-------------------|----------------7--]

  (just a bit longer than 6/8)
[-------------------|--------------------||
[-------------------|--------------------||
[-6--------6----46-4|-7------------------||
[-------------------|--------------------||


  
[-------------------|-------9--7--5-----|-------------------]
[-------------------|----------------9--|-------7--5------0-]
[----------7--5-----|-7-----------------|-------------7--5--]
[-0-----0--------7--|-------------------|-5-----------------]

  
[-------------------|-------------------|-------------------]
[-------------------|-------------------|-------------------]
[-------------------|-7--------7----57-5|-7-----7--7--------]
[-7--5--3--0--3--5--|-------------------|-------------------]

  
[-------------------|-------------------||
[-------------------|-------6--7--------||
[-6--------6----46-4|-7----4--4---------||
[-------------------|-------------------||
Suggest correction What's this?
You can suggest a correction to this tab. Community and Mods will review your correction and vote to approve or reject it.
comments
We did not receive enough feedback on this tab! Please rate:
print report bad tab
1 2 3 4 5
I want to post or [tab]
guest
You may want to rate the tab now too:
select rating
Please do not post tabs as comments. Select "correction" instead!