Oops, an error
Loading. Please wait.

Let Go Of My World Bass Tab

version 1
version 1

Whole song

Interactive

316 views 1 this week
no commentswrite comment
1 2 3 4 5
please rate
add to favorites
launch autoscroll
font size
0
reset
guitar tuner
Tab Pro tools
  • play this tab
  • loop segment
  • change instrument
  • show fretboard
  • metronome
×
Best way to learn
"Let Go Of My World"
Autoscroll
slow
fast
+/-
esc
set tempo
stop
Contributor
Tuning
D# G# C# F# A# D#
#----------------------------------PLEASE NOTE---------------------------------#
#This file is the author's own work and represents their interpretation of the #
#song. You may only use this file for private study, scholarship, or research. #
#------------------------------------------------------------------------------#

LET GO OF MY WORLD (Bassline)
As recorded by Testament
(From the 1992 Album THE RITUAL)

Transcribed by cbliss66@aol.com (slaya)
	

Words by Chuck Billy and Del James Music by Eric Peterson
Arranged by Testament

Gtr I (Bb Eb Ab Db Gb) - 'Greg Christian'

 Intro
  Moderately Fast Rock Q=158
 4/4
  Gtr I
  E E E E E E E E   W          +W           E E E E E E E E
|-----------------|----------|------------|-----------------|
|-----------------|----------|------------|-----------------|
|-1-1---0-0---0---|----------|------------|-----------------|
|---------------4-|-0--------|-(0)--------|-0-0-0-4-3-0-2-3-|
|-----------------|----------|------------|-----------------|


  E E E E E E E E   E E E E E E E E   E E E E E E E E   E E E E E E E E
|-----------------|-----------------|-----------------|-----------------|
|-----------------|-----------------|-----------------|-----------------|
|-----------------|-----------------|-7-----5-----5---|-----------------|
|-0-0-0-6-5-0-3-5-|-0-0-0-4-3-0-2-3-|---6-5---4-3---3-|-0-0-0-4-3-0-2-3-|
|-----------------|-----------------|-----------------|-----------------|


  E E E E E E E E   E E Q  H      E Q  E Q  E E
|-----------------|-------------|---------------||
|-----------------|-------------|---------------||
|-----------------|-------------|-7----5----5---||
|-0-0-0-6-5-0-3-5-|-0-0---------|-------------3-||
|-----------------|-------------|---------------||


  Accel Q=159
  E E E E E E E E   E E E E E E E E   E E E E E E E E   E Q  E Q  E E
|-----------------|-----------------|-----------------|---------------|
|-----------------|-----------------|-----------------|---------------|
|-----------------|-----------------|-----------------|-7----5----5---|
|-0-0-0-4-3-0-2-3-|-0-0-0-6-5-0-3-5-|-0-0-0-4-3-0-2-3-|-------------3-|
|-----------------|-----------------|-----------------|---------------|


  E E E E E E E E   E E E E E E E E   E E Q  H      E E Q  H
|-----------------|-----------------|-------------|-------------||
|-----------------|-----------------|-------------|-------------||
|-----------------|-----------------|-------------|-------------||
|-0-0-0-4-3-0-2-3-|-0-0-0-6-5-0-3-5-|-0-0---------|-0-0---------||
|-----------------|-----------------|-------------|-------------||


   Verses
    Accel Q=161                                          1.,2.,3.
    $
    $$
    E E E E E E E E   E E E E E E E E   E E E E E E E E   E E E E E E E E   4x
||------------------|-----------------|-----------------|-------------------||
||o-----------------|-----------------|-----------------|------------------o||
||------------------|-----------------|-----------------|-7-----5-----5-----||
||o-0-0-0-4-3-0-2-3-|-0-0-0-6-5-0-3-5-|-0-0-0-4-3-0-2-3-|---6-5---4-3---3--o||
||------------------|-----------------|-----------------|-------------------||


                    Chorus
  4.
  E E E E E E Q      Q  E E E E E E   E E E E E E E E
|----------------||-----------------|-----------------|
|---------0------||o----------------|-----------------|
|-------2---3-2--||-----------------|-----------------|
|-0-4-5----------||o-0--0-3-5-6-0-0-|-0-6-0-5-0-3-0-5-|
|----------------||-----------------|-----------------|


                          To Coda
                          To Coda
  Q  E E E E E E   E E E E E E E E         E E E E E E E E
|----------------|------------------||-||------------------|
|----------------|-----------------o||-||o-----------------|
|----------------|------------------||-||------------------|
|-0--0-3-5-6-0-0-|-0-6-0-0-0-5-0-3-o||-||o-0-0-0-4-3-0-2-3-|
|----------------|------------------||-||------------------|


                                     1.                  2.
                                                          D.S. al Coda
  E E E E E E E E   E E E E E E E E   E E E E E E E E     E Q  E Q  E E
|-----------------|-----------------|------------------||---------------||
|-----------------|-----------------|-----------------o||---------------||
|-----------------|-----------------|-7-----5-----5----||-7----5----5---||
|-0-0-0-6-5-0-3-5-|-0-0-0-4-3-0-2-3-|---6-5---4-3---3-o||-------------3-||
|-----------------|-----------------|------------------||---------------||


   Guitar Solo
    Slower Q=158                       1.,2.,3.
    &
    E E E E E E E E   E E E E E E E E   E E E E E E E E   E E E E E E E E   4x
||------------------|-----------------|-----------------|-------------------||
||o-----------------|-----------------|-----------------|------------------o||
||------------------|-----------------|-----------------|-7-----5-----5-----||
||o-0-0-0-4-3-0-2-3-|-0-0-0-6-5-0-3-5-|-0-0-0-4-3-0-2-3-|---6-5---4-3---3--o||
||------------------|-----------------|-----------------|-------------------||


  4.Accel Q=160
  E E Q  H      E E Q  H        E E E E E E E E   E E E E E E E E
|-------------|-------------||------------------|-----------------|
|-------------|-------------||o-----------------|-----------------|
|-------------|-------------||------------------|-----------------|
|-0-0---------|-0-0---------||o-0-0-0-4-3-0-2-3-|-0-0-0-6-5-0-3-5-|
|-------------|-------------||------------------|-----------------|


  1.                                 2.
                                             D.S.S. al Dbl. Coda
  E E E E E E E E   E Q  E Q  E E     E E Q  H      E Q  E Q  E E
|-----------------|----------------||-------------|---------------||
|-----------------|---------------o||-------------|---------------||
|-----------------|-7----5----5----||-------------|-7----5----5---||
|-0-0-0-4-3-0-2-3-|-------------3-o||-0-0---------|-------------3-||
|-----------------|----------------||-------------|---------------||


   Chorus III (continued)
    &&
    Q  E E E E E E   E E E E E E E E   Q  E E E E E E   E E E E E E E E
||-----------------|-----------------|----------------|-------------------||
||o----------------|-----------------|----------------|------------------o||
||-----------------|-----------------|----------------|-------------------||
||o-0--0-3-5-6-0-0-|-0-6-0-5-0-3-0-5-|-0--0-3-5-6-0-0-|-0-6-0-0-0-5-0-3--o||
||-----------------|-----------------|----------------|-------------------||


   Guitar Solo II
    Slower Q=158
    E E E E E E E E   E E E E E E E E   E E E E E E E E   E E E E E E E E
||------------------|-----------------|-----------------|-------------------||
||o-----------------|-----------------|-----------------|------------------o||
||------------------|-----------------|-----------------|-7-----5-----5-----||
||o-0-0-0-4-3-0-2-3-|-0-0-0-6-5-0-3-5-|-0-0-0-4-3-0-2-3-|---6-5---4-3---3--o||
||------------------|-----------------|-----------------|-------------------||


   Outro
    Accel Q=160
    E E E E E E E E   E E E E E E E E   E E E E E E E E
||------------------|-----------------|-----------------|
||o-----------------|-----------------|-----------------|
||------------------|-----------------|-----------------|
||o-0-0-0-4-3-0-2-3-|-0-0-0-6-5-0-3-5-|-0-0-0-4-3-0-2-3-|
||------------------|-----------------|-----------------|


  1.                 2.
  E E E E E E E E     E Q  E Q  E E   Q  +Q.    E Q
|------------------||---------------|----------------*|
|-----------------o||---------------|----------------*|
|-7-----5-----5----||-7----5----5---|----------------*|
|---6-5---4-3---3-o||-------------3-|----------------*|
|------------------||---------------|-5--(5)\--------*|



Duration Legend
---------------
W - whole; H - half; Q - quarter; E - 8th; S - 16th; T - 32nd; X - 64th; a - acciaccatura
+ - note tied to previous; . - note dotted; .. - note double dotted
Uncapitalized letters represent notes that are staccato (1/2 duration)
Irregular groupings are notated above the duration line
Duration letters will always appear directly above the note/fret number it represents the
duration for.  Duration letters with no fret number below them represent rests.  Multi-
bar rests are notated in the form Wxn, where n is the number of bars to rest for.  Low
melody durations appear below the staff

Tablature Legend
----------------
 h   - hammer-on
 p   - pull-off
 b   - bend
 pb  - pre-bend
 r   - bend release (if no number after the r, then release immediately)
 /\  - slide into or out of (from/to "nowhere")
 s   - legato slide
 S   - shift slide
 - natural harmonic
[n]  - artificial harmonic
n(n) - tapped harmonic
 ~   - vibrato
 tr  - trill
 T   - tap
 TP  - trem. picking
 PM  - palm muting
\n/  - tremolo bar dip; n = amount to dip
 \n  - tremolo bar down
 n/  - tremolo bar up
/n\  - tremolo bar inverted dip
 =   - hold bend; also acts as connecting device for hammers/pulls
 <> - volume swell (louder/softer)
 x   - on rhythm slash represents muted slash
 o   - on rhythm slash represents single note slash

Misc Legend
-----------
 |  - bar
||  - double bar
||o - repeat start
o|| - repeat end
*|  - double bar (ending)
 :  - bar (freetime)
 $  - Segno
 &  - Coda
Tempo markers -  = BPM(8/16=s8/s16), where s8 = swing 8ths, s16 = swing 16ths

comments
We did not receive enough feedback on this tab! Please rate:
print report bad tab
1 2 3 4 5
I want to post or [tab]
guest
You may want to rate the tab now too:
select rating
Please do not post tabs as comments. Select "correction" instead!