Oops, an error
Loading. Please wait.

True American Hate guitar pro

version 2
version 2

Whole song

  • I've practically remade all the old tab version.

Interactive

1,081 views 12 this week
4 commentsread comments
1 2 3 4 5
x 3
add to favorites
guitar tuner
Autoscroll
slow
fast
+/-
esc
set tempo
stop
About this tab version
I've practically remade all the old tab version. Was this info helpful? Yes No
"True American Hate"
demo version
Play now

or get full version for Free

×
Get full version now!
Learn and play this song
in Tab Pro
Try for free

or get $10 off Welcome Bonus

Get welcome bonus
Get access to Tab Pro version of “True American Hate”!
Tab Pro is a premium guitar tab service, available on PC, Mac, iOS and Android
TRY FOR FREE
Your download will start in 7 seconds
×
Like this song? We have more! Follow us on Facebook for daily tips, lessons and other guitar-related content.
To download “True American Hate” Guitar Pro tab click button below
Please note that you must have Guitar Pro software installed on your
computer in order to view this file.
Suggest correction
Give kudos to tab author, rate the tab!
1 2 3 4 5
comments
report bad tab
4 comments total. Showing first comments.
+1 reply
stevenrjackso 1,647 Jul 11, 2016 08:56 AM

This was really well done, thanks! I just wanted to ask why Eric Peterson's guitar stuff is in C# standard while the others are in drop C#? It didn't seem totally necessary, but I might have missed something.

+1 reply
registerr4loser 133 Nov 23, 2016 10:22 AM

Good attempt, but i think the main riff is played this way:
C#|----------------------------------|------------------------------------|
G#|----------------------------------|------------------------------------|
E |----------------------------------|--------------------------10-9-7----|
B |--------8-------------------------|--------8------------------------10-|
F#|--7-----------7-----8-----8-7-5-8-|--7-----------7-----8---------------|
C#|----0-0---0-0---0-0---0-0---------|----0-0---0-0---0-0---0-0-----------|

----------------------------------|---------------------------------|
----------------------------------|---------------------------------|
----------------------------------|--------------------10--9--7--9--|
--------8-------------------------|--------8-----------10--9--7--9--|
--7-----------7-----8-----8-7-5-8-|--7------------------8--7--5--7--|
----0-0---0-0---0-0---0-0---------|----0-0---0-0-0--0---------------|

Do you plan to edit the drums? Would be great to play along

guest
You may want to rate the tab now too:
select rating