Oops, an error
Loading. Please wait.

Me Dijiste Tab

version 1
version 1

Whole song

274 views 3 this week
no commentswrite comment
1 2 3 4 5
3 more votes to show rating
add to favorites
launch autoscroll
font size
0
reset
how to read this tab
guitar tuner
Autoscroll
slow
fast
+/-
esc
set tempo
stop
Help us to improve Ultimate-Guitar.com Take our survey!
×
Esto es el intro:

e|----------------------------------------------------
B|----------------------------------------------------
G|----------------------------------------------------
D|--8-6-4-2-2-----------------------2-2-2-2-2---------
A|--9-7-5-3-3-2-2-2-2-2-2-2-2-2-2-2-3-3-3-3-3---------
E|------------3-3-3-3-3-3-3-3-3-3-3-------------------


e|----------------------------------------------------
B|----------------------------------------------------
G|----------------------------------------------------
D|-------------------------2-2-2-0--------------------
A|---2-2-2-2-2-2-2-2-2-2-2-3-3-3-0-2------------------
E|---3-3-3-3-3-3-3-3-3-3-3---------3------------------

  Me dijidte ...

El requinto con el acordion va algo asi
e|----------------------------------------------------
B|--8-8-8-8-8-5-1-3-5-5-5-5-5-3-1-0--0-1-3-3-3-3-1-0--
G|----------------------------------------------------
D|----------------------------------------------------
A|----------------------------------------------------
E|----------------------------------------------------


e|----------------------------------------------------
B|-1/3-1-1-3-5-5-5-5-5-3-1-0--------------------------
G|----------------------------------------------------
D|----------------------------------------------------
A|----------------------------------------------------
E|----------------------------------------------------


e|----------------------------------------------------
B|---8-8-8-8-8-5-1-3-5-5-5-5-5-3-1-0--0-1-3-3-3-3-1-0-
G|----------------------------------------------------
D|----------------------------------------------------
A|----------------------------------------------------
E|----------------------------------------------------


e|----------------------------------------------------
B|-1/3-1-1-3-5-5-5-5-5-3-1-0--------------------------
G|----------------------------------------------------
D|----------------------------------------------------
A|----------------------------------------------------
E|----------------------------------------------------


Esto es todo espero les sirva.

======================================================
TRANCRIPCION DE LUIS FERNANDO PEREZ MACIAS.
(JAGUAR18@
Suggest correction
Give kudos to tab author, rate the tab!
1 2 3 4 5
comments
print report bad tab
guest
You may want to rate the tab now too:
select rating
Wanna post a correction for this tab? Suggest correction