Oops, an error
Loading. Please wait.

Me Dijiste Tab

version 2
version 2

Whole song

169 views 1 this week
no commentswrite comment
1 2 3 4 5
3 more votes to show rating
add to favorites
launch autoscroll
font size
0
reset
how to read this tab
guitar tuner
Autoscroll
slow
fast
+/-
esc
set tempo
stop
Help us to improve Ultimate-Guitar.com Take our survey!
×
"Esta transcripción esta al pex, porque no la suben?"
Intro


Todo es con Cejilla en el segundo traste
Y se cuenta a partir de  la cejilla
e|----------------------------------------------------
B|----------------------------------------------------
G|----------------------------------------------------
D|--6-5-4-2-1-1--2----------------------------------
A|--7-7-6-4-2-2--2-----------------------------------
E|------------------0---------------------------------

Cejilla en 2º traste
e|------------------------------------------------------
B|----------------------------------------------2---2--2
G|----------------------------------------------2---2--2
D|----------------------------------------------2---2--2
A|---2---2-----4-----0----4----0-----4------------------
E|----0---0-----0---- 2----0------2-----0---------------
(2 veces)
(Equivalente a A-E-A)

e|----------------------------------------------------
B|----------------------------------------------------
G|----------------------------------------------------
D|----------------------------------------------------
A|---9-----(11)---------------------------------------
E|---7------------------------------------------------
(Equivalente B7)

                    E
 Me dijiste que mi vida
                          B7
 no tenia ya sentido para ti.

 Si tus labios y tus ojos

 se alejaron poco a poco,
         E
 es mi FIN.


 Tuve ganas de abrazarte
                                B7
 y de nunca mas soltarte de mi ser.

 Pero todo estaba escrito

 que tenias que abandonarme
         E
 sin querer.


              A
 Que voy a hacer
              E
 si ella se fue.
                     B7
 Yo le quise dar mi vida,

 pero estaba decidida
           E
 y se me fue.


                      E
 Me senti un caso perdido
                            B7
 y tuve muchas ganas de llorar.

 Pero estaba un conocido

 se acerco como un amigo
            E
 y me aguante.

              A
 Que voy a hacer
              E
 si ella se fue.
                     B7
 Yo le quise dar mi vida,

 pero estaba decidida
           E
 y se me fue.
             A
Que voy a hacer
              E
 si ella se fue.
                    B7
 Yo le quise dar mi vida,

 pero estaba decidida
           E
 y se me fue.


(Solo c/acordeón)
mismas notas arpegiando
                B7
 Tu me tienes loco,
               E
 estoy enyerbado.
                   B7
 Desde que te fuiste
              E
 yo vivo penando.

       E-A7-A
 Que voy a hacer...

Fin

E-Fm-B7-E?E

Sugerencias a kdt_taylor_69@
Quejas: no debe haber
Suggest correction
Give kudos to tab author, rate the tab!
1 2 3 4 5
comments
print report bad tab
guest
You may want to rate the tab now too:
select rating
Wanna post a correction for this tab? Suggest correction