Oops, an error
Loading. Please wait.

Clenched Fist Tab

version 1
version 1

Whole song

Interactive

2,787 views 3 this week
no commentswrite comment
1 2 3 4 5
2 more votes to show rating
add to favorites
launch autoscroll
font size
0
reset
how to read this tab
guitar tuner
Autoscroll
slow
fast
+/-
esc
set tempo
stop
Help us to improve Ultimate-Guitar.com Take our survey!
×
Difficulty
Tuning
novice
C G C F A D
Here's my tab for the song Clenched Fist off the album Pride of Texas....its pretty
and I'm almost sure its 100%. Unfortunately I couldn't figure the solo out....the whammy
and wah make the notes hard to distinguish so I'll go ahead and include a tab of some 
to improvise with. Enjoy!


Intro:

D---------------------------------------------------------------------|
A---------------------------------------------------------------------|
F---------------------------------------------------------------------|
C-------------------------------0-------------------------------------|
G------------------------------------------------------6-5-3--3-2-1---|
C--0-0-3p0-0-/6-5---0-0-3p0-0-/6--5^---0-0-3p0-0-/6-5--6-5-3--3-2-1---|

                                                              pm----


D----------------------------------------------------------------------|
A----------------------------------------------------------------------|
F----------------------------------------------------------------------|
C-------------------------------0-----------------------------5-6-7----|
G------------------------------------------------------6-5-3--3-4-5----|
C--0-0-3p0-0-/6-5---0-0-3p0-0-/6--5^---0-0-3p0-0-/6-5--6-5-3-----------|

Verse:

Yes I've been drinkin....

D----------------------------------------------------------------------|
A----------------------------------------------------------------------|
F----------------------------------------------------------------------|
C-------------------------------0--------------------------------------|
G------------------------------------------------------6-5-3--3-2-1----|
C--0-0-3p0-0-5^-----0-0-3p0-0-/6--5^---0-0-3p0-0-5^----6-5-3--3-2-1----|

                                                            pm-----
D----------------------------------------------------------------------|
A----------------------------------------------------------------------|
F----------------------------------------------------------------------|
C-------------------------------0-----------------------------5-6-7----|
G------------------------------------------------------6-5-3--3-4-5----|
C--0-0-3p0-0-5^-----0-0-3p0-0-/6--5^---0-0-3p0-0-5^----6-5-3-----------|

so on....

Chorus and Solo backing

D-------------------------------------------------------------------------|
A-------------------------------------------------------------------------|
F-------------------------------------------------------------------------|
C-------------------------------------------------------------------------|
G--0--------0--------2--------2--------3--------3--------6-5-3-6-5-3------|
C--0--0000--0--0000--2--2222--2--2222--3--3333--3--3333--6-5-3-6-5-3------|
      pm--     pm--     pm--     pm--     pm--     pm---------------------|


Solo Scales (again, sorry I couldn't figure this out for you)


c blues


D-----------------------------------------10-13-15-16-17-20-22-----------|
A-----------------------------------10-13--------------------------------|
F--------------------------10-12-13--------------------------------------|
C-------------------10-12------------------------------------------------|
G----------10-11-12------------------------------------------------------|
C--12-15-(or 10-12)------------------------------------------------------|

c minor

D--------------------------------------------12-13-15-17-18-20-22--------|
A--------------------------------------13-15-----------------------------|
F-----------------------------12-14-15-----------------------------------|
C--------------------12-14-15--------------------------------------------|
G-----------12-13-15-----------------------------------------------------|
C--12-14-15--------------------------------------------------------------|

There it is. Hope I've been of some help. Adios and rock on
Suggest correction
Give kudos to tab author, rate the tab!
1 2 3 4 5
comments
print report bad tab
guest
You may want to rate the tab now too:
select rating
Wanna post a correction for this tab? Suggest correction