Oops, an error
Loading. Please wait.

Outlaw Tab

3,317 views 15 this week
no commentswrite comment
1 2 3 4 5
accurate
x 4
add to favorites
launch autoscroll
font size
0
reset
how to read this tab
guitar tuner
Autoscroll
slow
fast
+/-
esc
set tempo
stop
Help us to improve Ultimate-Guitar.com Take our survey!
×
Author
Difficulty
Tuning
intermediate
C G C F A D
                                           Texas Hippie Coalition-Outlaw

                                                  as tabbed by:
                                            Mischa Bovendeert 24-01-2013


Watch it go outlaws, for the people waitin for this tab, i decided to make one since
there aren't that many online, it ain't perfect, but it gets the job done

The Tab is for Drop C tuning: C G C F A D




Cover on youtube: https://www.youtube.com/watch?v=-Lr6JMfY8_s




Intro: weeeeeeeelll i'm like a hurricane

D|-----------------------------------|
A|-----------------------------------|
F|-----------------------------------|
C|-----3-----------------------------|
G|--------5--3--0--3--5-----------5--|
C|--0--------------------0--3--0-----| x alott of times, just get the feel of the song 
and you'll get it


Verse:

D|-----------------------------------|
A|-----------------------------------|
F|-----------------------------------|
C|-----3-----------------------------|
G|--------5--3--0--3--5-----------5--|
C|--0--------------------0--3--0-----| this time palm mute it, only during verses.


Chorus: i'm an outlaw...

D|-----------------------------------------------|
A|--3--------------------------------------------|
F|--2--------------------------------------------|
C|-----5--5--5-----------7--3--5--5--5--3--5--3--|
G|-----3--2--3--------3--5--3--3--5--5--3--5--3--|
C|--0-----------3-h5--------3-----5--5--3--5--3--|
                                     .  .  .


Verse:
Verse:

D|-----------------------------------|
A|-----------------------------------|
F|-----------------------------------|
C|-----3-----------------------------|
G|--------5--3--0--3--5-----------5--|
C|--0--------------------0--3--0-----| this time palm mute it, only during verses.



little fill in the next verse:

D|------------------------|
A|------------------------|
F|-------5----------------|
C|--5/7-----7--5--3h5-----|
G|---------------------3--|
C|------------------------|


Chorus: i'm an outlaw...

D|-----------------------------------------------|
A|--3--------------------------------------------|
F|--2--------------------------------------------|
C|-----5--5--5-----------7--3--5--5--5--3--5--3--|
G|-----3--2--3--------3--5--3--3--5--5--3--5--3--|
C|--0-----------3-h5--------3-----5--5--3--5--3--|
                                     .  .  .


Solo interlude:

D|-----------------------------------------------------------------|
A|-----------------------------------------------------------------|
F|-----------------------------------------------------------------|
C|--3--0-----------------3--0--------------0--3--0-----------------|
G|--3--0-----------------3--0--------------0--3--0-----------------|
C|--3--0--x--x--x--x--x--3--0--x--x--x--x--0--3--0--x--x--x--x--x--|


Solo ( not 101% correct, but feels good)
                                                           Full bend here, keep it screamin!!

D|--------10---------10---------10---------10----------10--13(15)--|
A|--13(15)-----13(15)-----13(15)-----13(15)-----13(15)-------------|
F|-----------------------------------------------------------------|
C|-----------------------------------------------------------------|
G|-----------------------------------------------------------------|
C|-----------------------------------------------------------------|

   Gotta love these doublstops!!

D|------------------------------------------------------|
A|--12--10--12--10----------12--10----------------------|
F|--12--10--12--10----------12--10----------------------|
C|------------------10--12----------12--10--------------|
G|------------------------------------------12--10--12?-|
C|------------------------------------------------------|
                                                not sure here, just jam!!

??? To be continued


Chorus: i'm an outlaw...

D|-----------------------------------------------|
A|--3--------------------------------------------|
F|--2--------------------------------------------|
C|-----5--5--5-----------7--3--5--5--5--3--5--3--|
G|-----3--2--3--------3--5--3--3--5--5--3--5--3--|
C|--0-----------3-h5--------3-----5--5--3--5--3--|
                                     .  .  .

Verse:

D|-----------------------------------|
A|-----------------------------------|
F|-----------------------------------|
C|-----3-----------------------------|
G|--------5--3--0--3--5-----------5--|
C|--0--------------------0--3--0-----| loose palm



 
will add the rest later, had a long day already, but thanks for checking it out!!
Suggest correction
comments
print report bad tab
guest
You may want to rate the tab now too:
select rating
Please do not post tabs as comments. Select "correction" instead!