Oops, an error
Loading. Please wait.

Bed Of Nails tab

version 1
version 1

Whole song

Interactive

64 views 1 this week
no commentswrite comment
1 2 3 4 5
3 more votes to show rating
add to favorites
×
Save as Personal and add changes to this tab that will be seen only by you. Learn more ›
×
You can save this tab as Personal to edit and correct it or add notes. All changes will be seen only by you. Learn more »
launch autoscroll
font size
0
reset
how to read this tab
guitar tuner
edit
Autoscroll
slow
fast
+/-
esc
set tempo
stop
[Bed Of Nails]
[Texas In July]
[Texas In July]

Tuning: C G C F A D
Playthrough: https://www.youtube.com/watch?v=4lp559Eh8BI


[Riff 1, Guitar 1 & 2] - [00:00] - [00:16]
- ----------------------------------------------------------------------------
- ----------------------------------------------------------------------------
- ----------------------------------------------------------------------------
- ----------------------------------------------------------------------------
- ----------------------------------------------------------------------------
- -12-0-10-12-0-13-0-12-0-0-12-0-12-8-0-7-0-7-8-0-7-0-8-0-7-3-0-3-0-3-0-3-0-0-
PM    .       .    .    .....................................................
- ----------------------------------------------------------------------------
- ----------------------------------------------------------------------------
- ----------------------------------------------------------------------------
- -0-------0----1----0--------------------------------------------------------
- -0--0-0--0--0-1--0-0--------------------------------------------------------
- -0--0-0--0--0-1--0-0--------------------------------------------------------
PM    ...     .    .


- ----------------------------------------------------------------------------
- ----------------------------------------------------------------------------
- ----------------------------------------------------------------------------
- ----------------------------------------------------------------------------
- ----------------------------------------------------------------------------
- -12-0-10-12-0-13-0-12-0-0-12-0-12-8-0-7-0-7-8-0-7-0-8-0-7-3-0-3-0-3-0-3-0-0-
PM    .       .    .    
- ----------------------------------------------------------------------------
- ----------------------------------------------------------------------------
- ----------------------------------------------------------------------------
- -0-------0----1----0---------0~---------------------------------------------
- -0--0-0--0--0-1--0-0---------0~---------------------------------------------
- -0--0-0--0--0-1--0-0---------0~---------------------------------------------
PM    ...     .    .


- ----------------------------------------------------------------------------
- ----------------------------------------------------------------------------
- ----------------------------------------------------------------------------
- ----------------------------------------------------------------------------
- ----------------------------------------------------------------------------
- -12-0-10-12-0-13-0-12-0-0-12-0-12-8-0-7-0-7-8-0-7-0-8-0-7-3-0-3-0-3-0-3-0-0-
PM    .       .    .    .....................................................
- ----------------------------------------------------------------------------
- ----------------------------------------------------------------------------
- ----------------------------------------------------------------------------
- -0-------0----1----0--------------------------------------------------------
- -0--0-0--0--0-1--0-0--------------------------------------------------------
- -0--0-0--0--0-1--0-0--------------------------------------------------------
PM    ...     .    .


- ----------------------------------------------------------------------------
- ----------------------------------------------------------------------------
- ----------------------------------------------------------------------------
- ----------------------------------------------------------------------------
- ----------------------------------------------------------------------------
- -12-0-10-12-0-13-0-12-0-0-12-0-12-8-0-7-0-7-8-0-7-0-8-0-7-3-0-3-0-3-0-3-0-0-
PM    .       .    .    
- ----------------------------------------------------------------------------
- ----------------------------------------------------------------------------
- ----------------------------------------------------------------------------
- -0-------0----1----0~-----------------------------------///-----------------
- -0--0-0--0--0-1--0-0~-----------------------------------///-----------------
- -0--0-0--0--0-1--0-0~-----------------------------------///-----------------
PM    ...     .    .


[Riff 2] - [00:16] - [00:24] - [x2]
- -----------------------------------------------------------------------------
- -----------------------------------------------------------------------------
- -----------------------------------------------------------------------------
- -----------------------------------------------------------------------------
- ---------------------------------10------13----------5-------5-3---3\1-------
- -12-0-10-12-13-12-12-12-0-0-12v-----12-0----12-0-0-----8-5-------5-----3-2-0-
PM                                       .       .


[Riff 3, Guitar 1 & 2] - [00:24] - [00:32]
- -----------------------------------------------------------------------------
- -----------------------------------------------------------------------------
- -----------------------------------------------------------------------------
- -----------------------------------------------------------------------------
- -10------13------10------3-1---1-------10------13------10------3---3-1-------
- ----12-0----12-0----12-0-----3---3-2-0----12-0----12-0----12-0---3-----3-2-0-
PM       .       .       .             .       .       .       .
- -----------------------------------------------------------------------------
- -----------------------------------------------------------------------------
- -----------------------------------------------------------------------------
- -----------------------------------------------------------------------------
- -10------13------10------3-1---1-------13------17------13------3---3-1-------
- ----12-0----12-0----12-0-----3---3-2-0----15-0----15-0----15-0---3-----3-2-0-
PM       .       .       .             .       .       .       .


- ----------------------------------------------------------------------------------
- ----------------------------------------------------------------------------------
- ----------------------------------------------------------------------------------
- --------------------------------------------------------------------------5-------
- -10------13------10------3-1---1-------10------13------10------8--5----------5----
- ----12-0----12-0----12-0-----3---3-2-0----12-0----12-0----12-0-------7--3-------0-
PM       .       .       .             .       .       .       .
- ----------------------------------------------------------------------------------
- ----------------------------------------------------------------------------------
- -12------15------12--------------------12-------15-----12------10---------12------
- ----12-0----12-0----12-0------------------12-0----12-0----12-0----12---------12---
- -------------------------3-1---1-------------------------------------12-8-------0-
- -----------------------------3---3-2-0--------------------------------------------
PM       .       .       .             .       .       .       .


[Riff 4] - [00:32] - [00:48]
- ---------------------------------------------------------------------
- ---------------------------------------------------------------------
- ---------------------------------------------------------------------
- ---------------------------------------------------------------------
- ---------5---------------------------------------------------------8-
- -0-5-7-8---0-12v--12-0-12-10-8-0-7-8-7-0-5-7-5-3-0---0---0-5-7-8-7---
PM ...........         ...........................         .........

- ---------------------------------------------------------------------
- ---------------------------------------------------------------------
- ---------------------------------------------------------------------
- ---------------------------------------------------------------5-----
- ---------5---------------------------------------------8-5-------5---
- -0-5-7-8---0-12v--12-0-12-10-8-0-7-8-7-0-5-7-5-3-0---0-----7-3-----0-
PM ...........         ...........................     .

- ---------------------------------------------------------------------
- ---------------------------------------------------------------------
- ---------------------------------------------------------------------
- ---------------------------------------------------------------------
- ---------5-----------------------------------------------------------
- -0-5-7-8---0-12v--12-0-12-10-8-0-7-8-7-0-5-7-5-3-0---0-------0-5-7-8-
PM ...........         ...........................             .......

- ---------------------------------------------------------------------
- ---------------------------------------------------------------------
- ---------------------------------------------------------------------
- ---------------------------------------------------------------5-----
- ---------5---------------------------------------------8-5-------5---
- -0-5-7-8---0-12v--12-0-12-10-8-0-7-8-7-0-5-7-5-3-0---0-----7-3-----0-
PM ...........         ...........................     .

[Riff 5] - [00:48] - [01:04]
- --------------------------------------------------------------------
- -------------------------6-----10-----------------------------------
- -----------------3-7-------7------7---------------------------------
- -0-5-0-8-7-0-3-5-----5-0-----8------8-5-0-5-0-8-7-----12-----10-7---
- ------------------------------------------------------------------8-
- --------------------------------------------------0-8----0-7--------
PM                     ...

- --------------------------------------------------------------------
- -------------------------6-----10-----------------------------------
- -----------------3-7-------7------7---------------------------------
- -0-5-0-8-7-0-3-5-----5-0-----8------8-5-0-5-0-8-7-----12-----10-7---
- ------------------------------------------------------------------8-
- --------------------------------------------------0-8----0-7--------
PM                     ...

- --------------------------------------------------------------------
- -------------------------6-----10-----------------------------------
- -----------------3-7-------7------7---------------------------------
- -0-5-0-8-7-0-3-5-----5-0-----8------8-5-0-5-0-8-7-----12-----10-7---
- ------------------------------------------------------------------8-
- --------------------------------------------------0-8----0-7--------
PM                     ...

- --------------------------------------------------------------------
- -------------------------6-----10-----------------------------------
- -----------------3-7-------7------7---------------------------------
- -0-5-0-8-7-0-3-5-----5-0-----8------8-5-0-5-0-8-7-7---5---7\--------
- --------------------------------------------------7---5---7\--------
- --------------------------------------------------7---5---7\--------
PM                     ...

[Riff 6a] - [01:04] - [01:19] - [x4]
- ----------------------------------------------------------------------------
- ----------------------------------------------------------------------------
- ----------------------------------------------------------------------------
- ----------------------------------------------------------------------------
- ----------------------------------------------------------------------------
- -12-0-10-12-0-13-0-12-0-0-12-0-12-8-0-7-0-7-8-0-7-0-8-0-7-3-0-3-0-3-0-3-0-0-

[Riff 6b] - [01:04] - [01:19]
- -----------------10----------------------------------------------
- -10(x8)----------10(x16)-------------------------8(x4)---10(x4)--
- -7---------------7-------------------------------7-------7-------
- -0---------------0-------------------------------0-------0-------
- -----------------------------------------------------------------
- -----------------------------------------------------------------

- -----------------10----------------------------------------------
- -11(x8)----------11(x16)-------------------------8(x4)---10(x4)--
- -7---------------7-------------------------------7-------7-------
- -0---------------0-------------------------------0-------0-------
- -----------------------------------------------------------------
- -----------------------------------------------------------------

- -----------------10----------------------------------------------
- -10(x8)----------10(x16)-------------------------8(x4)---10(x4)--
- -7---------------7-------------------------------7-------7-------
- -0---------------0-------------------------------0-------0-------
- -----------------------------------------------------------------
- -----------------------------------------------------------------

- -----------------10----------------------------------------------
- -11(x8)----------11(x16)-------------------------10(x8)----------
- -7---------------7-------------------------------7---------------
- -0---------------0-------------------------------0---------------
- -----------------------------------------------------------------
- -----------------------------------------------------------------

[Riff 7a] - [01:19] - [01:35]
- -----------------------------------------------------------------
- -----------------------------------------------------------------
- -----------------------------------------------------------------
- -----------------------------------------------------------------
- -0-0-0-0-0---0-0-0-0-0-0---0---0-0-0-0---0---0-0-0-------0---0-0-
- -0-0-0-0-0---0-0-0-0-0-0---0---0-0-0-0---0---0-0-0-------0---0-0-
PM ...............................................................

- -----------------------------------------------------------------
- -----------------------------------------------------------------
- -----------------------------------------------------------------
- -----------------------------------------------------------------
- -0-0-0---0---0-0-0-0---0-0---0---0-0-0---0---0-0-0-0---0-0---0---
- -0-0-0---0---0-0-0-0---0-0---0---0-0-0---0---0-0-0-0---0-0---0---
PM ...............................................................

- -----------------------------------------------------------------
- -----------------------------------------------------------------
- -----------------------------------------------------------------
- -----------------------------------------------------------------
- -0-0-0-0-0---0-0-0-0-0-0---0---0-0-0-0---0---0-0-0-------0---0-0-
- -0-0-0-0-0---0-0-0-0-0-0---0---0-0-0-0---0---0-0-0-------0---0-0-
PM ...............................................................

- -----------------------------------------------------------------
- -----------------------------------------------------------------
- -----------------------------------------------------------------
- -----------------------------------------------------------------
- -0-0-0---0---0-0-0-0---0-0---0---0-0-0-0-----0-0-0-0-----0---0---
- -0-0-0---0---0-0-0-0---0-0---0---0-0-0-0-----0-0-0-0-----0---0---
PM ...............................................................

[Riff 7b] - [01:19] - [01:35] - [x2]
- -----------------------------------------------------------------
- -----------------------------------------------------------------
- -----------------------------------------------------------------
- -0-0-0-0-----3-3-7-7-7-7-----0-0-0-0-3-3-7-7-7-7-----5-5-5-5-7-7-
- -----------------------------------------------------------------
- -----------------------------------------------------------------

- -------------------------------------------------------------------------
- -------------------------------------------------------------------------
- -------------------------------------------------------------------------
- -8-8-8-8-----8-8-8-8-----12-12-12-12-7-7-7-7-----7-7-7-7-----10-10-10-10-
- -------------------------------------------------------------------------
- -------------------------------------------------------------------------

[Riff 8] - [01:35] - [01:51]
- -----------------------------------------------------------------
- -----------------------------------------------------------------
- -----------------------------------------------------------------
- -0~--------------------------------------------------------------
- -0~--------------------------------------------------------------
- -0~--------------------------------------------------------------

Riff 9 plays once behind Riff 8, starting at 01:43

[Riff 9] - [01:51] - [02:06] - [x2]
- -----------------------------------0--------------------------------------
- ------/8---------------------------0------/8------------------------------
- ---------6-------------------------0---------6-----------------------4b---
- -1---------5-1-------------0-3-2/7---1---------5-1-------------0-3-3----0-
- -1-----------1-------------0-1-2/7---1-----------1-------------0-3-3----0-
- -1-----------1-0-12v--12\--0---2/7---1-----------1-0-12v--12\--0-3-3----0-

Shift up 2 octaves with an octave pedal to get those super high notes

[Riff 10] - [02:06] - [02:07]
- -----------------
- -----------------
- -----------------
- -----------------
- -0-0-0-0-0---0-0-
- -0-0-0-0-0---0-0-
PM ...............


[Riff 11, Guitar 1 & 2] - [02:07] - [02:23]
- -----------------------------------------------------------------
- -----------------------------------------------------------------
- -----------------------------------------------------------------
- -----------------------------------------------------------------
- -0-0-0-0-0---0-0-0-0-0-0---0---0-0-0-0---0---0-0-0-------0---0-0-
- -0-0-0-0-0---0-0-0-0-0-0---0---0-0-0-0---0---0-0-0-------0---0-0-
PM ...............................................................
- -----------------10----------------------------------------------
- -10(x8)----------10(x16)-------------------------8(x4)---10(x4)--
- -7---------------7-------------------------------7-------7-------
- -0---------------0-------------------------------0-------0-------
- -----------------------------------------------------------------
- -----------------------------------------------------------------


- -----------------------------------------------------------------
- -----------------------------------------------------------------
- -----------------------------------------------------------------
- -----------------------------------------------------------------
- -0-0-0---0---0-0-0-0---0-0---0---0-0-0---0---0-0-0-0---0-0---0---
- -0-0-0---0---0-0-0-0---0-0---0---0-0-0---0---0-0-0-0---0-0---0---
PM ...............................................................
- -----------------10----------------------------------------------
- -11(x8)----------11(x16)-------------------------8(x4)---10(x4)--
- -7---------------7-------------------------------7-------7-------
- -0---------------0-------------------------------0-------0-------
- -----------------------------------------------------------------
- -----------------------------------------------------------------


- -----------------------------------------------------------------
- -----------------------------------------------------------------
- -----------------------------------------------------------------
- -----------------------------------------------------------------
- -0-0-0-0-0---0-0-0-0-0-0---0---0-0-0-0---0---0-0-0-------0---0-0-
- -0-0-0-0-0---0-0-0-0-0-0---0---0-0-0-0---0---0-0-0-------0---0-0-
PM ...............................................................
- -----------------10----------------------------------------------
- -10(x8)----------10(x16)-------------------------8(x4)---10(x4)--
- -7---------------7-------------------------------7-------7-------
- -0---------------0-------------------------------0-------0-------
- -----------------------------------------------------------------
- -----------------------------------------------------------------


- -----------------------------------------------------------------
- -----------------------------------------------------------------
- -----------------------------------------------------------------
- -------------------------------------------------7---5---7\------
- -0-0-0---0---0-0-0-0---0-0---0---0-0-0---0---0-0-7---5---7\------
- -0-0-0---0---0-0-0-0---0-0---0---0-0-0---0---0-0-7---5---7\------
PM ...............................................
- -----------------10----------------------------------------------
- -11(x8)----------11(x16)-------------------------10--8---10\-----
- -7---------------7-------------------------------x---x---x-------
- -0---------------0-------------------------------7---5---7-\-----
- -----------------------------------------------------------------
- -----------------------------------------------------------------


[Riff 12, Guitar 1 & 2] - [02:23] - [02:39]
- --------------------------------------------------------------------------------------
- --------------------------------------------------------------------------------------
- -7--7--10--14--14--7--10--14--14--12--14--15\--10-15-15-15-19-19-14\--7-14-14-14-17\--
- -x--x--x---x---x---x--x---x---x---x---x---x----x--x--x--x--x--x--x----x-x--x--x--x----
- -5--5--8---12--12--5--8---12--12--10--12--13\--8--13-13-13-17-17-12\--5-12-12-12-15\--
- --------------------------------------------------------------------------------------
-
- --------------------------------------------------------------------------------------
- --------------------------------------------------------------------------------------
- --------------------------------------------------------------------------------------
- -0--0--3---7---7---0--3---7---7---5---7---8\---3--8--8--8--12-12-7\---0-7--7-----10\--
- -0--0--3---7---7---0--3---7---7---5---7---8\---3--8--8--8--12-12-7\---0-7--7--0--10\--
- -0--0--3---7---7---0--3---7---7---5---7---8\---3--8--8--8--12-12-7\---0-7--7--0--10\--
PM                                                                              .


- -----------------------------------------------------------------
- -----------------------------------------------------------------
- -7--7--10--14--14--7--10--14--14--12--14--15\--10-15-15-15-19-19-
- -x--x--x---x---x---x--x---x---x---x---x---x----x--x--x--x--x--x--
- -5--5--8---12--12--5--8---12--12--10--12--13\--8--13-13-13-17-17-
- -----------------------------------------------------------------
-
- -----------------------------------------------------------------
- -----------------------------------------------------------------
- -----------------------------------------------------------------
- -0--0--3---7---7---0--3---7---7---5---7---8\---3--8--8--8--12-12-
- -0--0--3---7---7---0--3---7---7---5---7---8\---3--8--8--8--12-12-
- -0--0--3---7---7---0--3---7---7---5---7---8\---3--8--8--8--12-12-


- ------------------------------------------------------
- ------------------------------------------------------
- ------------------------------------------------------
- -----------------------7~-------------0~--------------
- -----------------------7~-------------0~--------------
- -15-14-0-14-12-0-12-10-7~--0-15-17-12-0~--------------
PM .....................     ..........
- ------------------------------------------------------
- ------------------------------------------------------
- ------------------------------------------------------
- -----------------------7~-------------0~--------------
- -----------------------7~-------------0~--------------
- -12-10-0-10-8--0-8--7--7~--0-10-12-7--0~--------------
PM .....................     ..........


[Riff 13] - [02:39] - [02:47]
- -----------------------------------------------------------------
- -----------------------------------------------------------------
- -----------------------------------------------------------------
- -----------------------------------------------------------------
- -0-0-0-0-0-0-0-----0-0-0-0-0-0-0-0-0-0-0-0-0-0-----------0-0-0-0-
- -0-0-0-0-0-0-0-----0-0-0-0-0-0-0-0-0-0-0-0-0-0-----------0-0-0-0-
PM ...............................................................

- -----------------------------------------------------------------
- -----------------------------------------------------------------
- -----------------------------------------------------------------
- -----------------------------------------------------------5-----
- -0-0-0-0-0-0-0-----0-0-0-0-0-0-0-0-0-0-0-0-0-0-----8-5-------5---
- -0-0-0-0-0-0-0-----0-0-0-0-0-0-0-0-0-0-0-0-0-0---0-----7-3-----0-
PM .................................................

[Riff 14] - [02:47] - [02:54]
- ---------------------------------------------------------------------
- ---------------------------------------------------------------------
- ---------------------------------------------------------------------
- ---------------------------------------------------------------------
- ---------5-----------------------------------------------------------
- -0-5-7-8---0-12v--12-0-12-10-8-0-7-8-7-0-5-7-5-3-0---0-------0-5-7-8-
PM ...........         ...........................             .......

- ---------------------------------------------------------------------
- ---------------------------------------------------------------------
- ---------------------------------------------------------------------
- ---------------------------------------------------------------------
- ---------5-----------------------------------------------------------
- -0-5-7-8---0-12v--12-0-12-10-8-0-7-8-7-0-5-7-5-3-0-------------------
PM ...........         ...........................

[Symbols]

PM... Palm Mute notes with (...) under them
AP... Alternate Pick notes with (...) under them
h     Hammer On
p     Pull Off
[ ]   Harmonic
/     Slide Up
\     Slide Down
x     Dead Note
b     Bend
hb    Hold Bend
pb    Pre-Bend
r     Release Bend
(x )  Play Notes x amount of times
~     Let Ring
\\\   Pick Slide Down
///   Pick Slide Up
/ 3 \ Notes are triplets (3 notes in the space of two)
w\    Whammy Bar Down
w/    Whammy Bar Up
wh    Whammy Bar Hold
T     Right Hand Tap
L     Left Hand Tap

:)
Suggest correction
Creating personal tab
Creating personal tab
You can edit any tab online and save it as your Personal.

You can edit, replace or remove any tab part or add personal notes – all changes will be seen only by you.

Personal tabs can be accessed anytime from any device, even offline.
Learn more »
Give kudos to tab author, rate the tab!
1 2 3 4 5
comments
print report bad tab
guest
You may want to rate the tab now too:
select rating
Wanna post a correction for this tab? Suggest correction