Oops, an error
Loading. Please wait.

Elements tab

version 1
version 1

Whole song

Interactive

85 views 1 this week
no commentswrite comment
1 2 3 4 5
3 more votes to show rating
add to favorites
×
Save as Personal and add changes to this tab that will be seen only by you. Learn more ›
×
You can save this tab as Personal to edit and correct it or add notes. All changes will be seen only by you. Learn more »
launch autoscroll
font size
0
reset
how to read this tab
guitar tuner
edit
Autoscroll
slow
fast
+/-
esc
set tempo
stop
[Elements]
[I Am]
{Texas In July]

Tuning: C G C F A D
Playthrough: https://www.youtube.com/watch?v=A5xVUDo4Acw

[Riff 1a] - [00:00] - [00:18] - [x2]
- -----------------------------------------------------------------
- -10--------------10--------------10--------------5---------------
- -7---------------7---------------10--------------7---------------
- -0---------------0---------------8---------------5---------------
- -0---------------0---------------8---------------5---------------
- -0---------------0---------------8---------------5---------------

[Riff 1b] - [00:00] - [00:37] - [x4]
- -----------------------------------------------------------------------
- ---------------------------------10------------------------------------
- --------------------9--------9-------------------------10-7---9--------
- ------7-----8---------10---7-------------7-----8--7-------------10---7-
- ----------------8------------------------------------------------------
- -0-10---0-5---0---0------0-----0----0-10---0-5---0---0------0------0---
PM ....   ...   .   .      .     .    ....   ...   .   .      .      .

[Riff 2a] - [00:37] - [00:57]
- -----------------------------------------------------------------
- -----------------------------------------------------------------
- -----------------------------------------------------------------
- -----------------------------------------------------------------
- -0---0-0---0-0---------------0-0-0---0-0---0-0---0-0-0-0---0---0-
- -0---0-0---0-0---------------0-0-0---0-0---0-0---0-0-0-0---0---0-
PM ...............................................................

- -----------------------------------------------------------------
- -----------------------------------------------------------------
- -----------------------------------------------------------------
- -----------------------------------------------------------------
- -8---8-8---8-8---------------8-8-5---5-5---5-5---5-5-5-5---5---5-
- -8---8-8---8-8---------------8-8-5---5-5---5-5---5-5-5-5---5---5-
PM ...............................................................

- -----------------------------------------------------------------
- -----------------------------------------------------------------
- -----------------------------------------------------------------
- -----------------------------------------------------------------
- -0---0-0---0-0---------------0-0-0---0-0---0-0---0-0-0-0---0---0-
- -0---0-0---0-0---------------0-0-0---0-0---0-0---0-0-0-0---0---0-
PM ...............................................................

- -------------------------------------------------------------------------------
- -------------------------------------------------------------------------------
- -------------------------------------------------------------------------------
- -------------------------------------------------------------------------------
- -8---8-8---8-8---------------8-8-5---5-5---5-5---5-5-5-5---5---5-0---0-0---0-0-
- -8---8-8---8-8---------------8-8-5---5-5---5-5---5-5-5-5---5---5-0---0-0---0-0-
PM .............................................................................

[Riff 2b] - [00:37] - [00:57]
- --------------------------------------------------------------------
- ---------------------------10-------------------------10------------
- -9----------9---9---------------9----------9---9-----------9--------
- ---10-0-7-0---0---10-0-7-0----0---10-0-7-0---0---10-0----0---10-7-0-
- --------------------------------------------------------------------
- --------------------------------------------------------------------
PM      .   .   .      .   .    .      .   .   .      .    .        .

- --------------------------------------------------------------------
- ---------------------------10-------------------------10------------
- -9----------9---9---------------9----------9---9-----------9--------
- ---10-0-8-0---0---10-0-8-0----0---10-0-8-0---0---10-0----0---10-8-0-
- --------------------------------------------------------------------
- --------------------------------------------------------------------
PM      .   .   .      .   .    .      .   .   .      .    .        .

- --------------------------------------------------------------------
- ---------------------------10-------------------------10------------
- -9----------9---9---------------9----------9---9-----------9--------
- ---10-0-7-0---0---10-0-7-0----0---10-0-7-0---0---10-0----0---10-7-0-
- --------------------------------------------------------------------
- --------------------------------------------------------------------
PM      .   .   .      .   .    .      .   .   .      .    .        .

- ---------------------------------------------------------------------------------------
- ---------------------------10-------------------------10-------------------------------
- -9----------9---9---------------9----------9---9-----------9--------9----------9---9---
- ---10-0-8-0---0---10-0-8-0----0---10-0-8-0---0---10-0----0---10-8-0---10-0-7-0---0---0-
- ---------------------------------------------------------------------------------------
- ---------------------------------------------------------------------------------------
PM      .   .   .      .   .    .      .   .   .      .    .        .      .   .   .   .

[Riff 2c] - [00:46] - [00:57]
- ------------------------------8--------------------------------8-------------
- -10----------10---10--------------10----------10---10--------------10--------
- ----10---7-----------10---7----------10---7-----------10---7----------10-7---
- -------0---0----0-------0---0---0-------0---0----0-------0---0---0---------0-
- -----------------------------------------------------------------------------
- -----------------------------------------------------------------------------
PM       .   .    .       .   .   .       .   .    .       .   .   .         .

- ------------------------------8--------------------------------8---------------------------------
- -10----------10---10--------------10----------10---10--------------10--------10----------10---10-
- ----10---7-----------10---7----------10---7-----------10---7----------10-7------10---7-----------
- -------0---0----0-------0---0---0-------0---0----0-------0---0---0---------0-------0---0----0----
- -------------------------------------------------------------------------------------------------
- -------------------------------------------------------------------------------------------------
PM       .   .    .       .   .   .       .   .    .       .   .   .         .       .   .    .

[Riff 3a] - [00:57] - [01:25] - [x4]
- -----------------------------------------------------------------
- -----------------------------------------------------------------
- -----------------------------------------------------------------
- -----------------------------------------------------------------
- -0---0-0---0-0---------------0-0-0---0-0---0-0---0-0-0-0---0---0-
- -0---0-0---0-0---------------0-0-0---0-0---0-0---0-0-0-0---0---0-
PM ...............................................................

[Riff 3b] - [01:06] - [01:25] - [x2]
- ------------------------------8--------------------------------8-------------
- -10----------10---10--------------10----------10---10--------------10--------
- ----10---7-----------10---7----------10---7-----------10---7----------10-7---
- -------0---0----0-------0---0---0-------0---0----0-------0---0---0---------0-
- -----------------------------------------------------------------------------
- -----------------------------------------------------------------------------
PM       .   .    .       .   .   .       .   .    .       .   .   .         .

- --------------------------------------------------------------------
- ---------------------------10-------------------------10------------
- -9----------9---9---------------9----------9---9-----------9--------
- ---10-0-7-0---0---10-0-7-0----0---10-0-7-0---0---10-0----0---10-7-0-
- --------------------------------------------------------------------
- --------------------------------------------------------------------
PM      .   .   .      .   .    .      .   .   .      .    .        .

[Riff 4] - [01:25] - [01:27]
- ---------------------------------
- -----------------10------10------
- -----------------7-------7-------
- -----------------0-------0-------
- -0---0-0---0-0---0-------0-------
- -0---0-0---0-0---0-------0-------
PM .............


[Riff 5, Guitar 1 & 2] - [01:27] - [01:46]
- -----------------------------------------------------------------------
- -11-----10-----------10-------------11-----10-----------10-------------
- ----7-------------------7--------------7-------------------7-----------
- ------0----0-8------------0-8-0----------0----0-8------------0-8-0-----
- ---------------0-8-0------------8-0---------------0-8-0------------8-0-
- -----------------------------------------------------------------------
PM      .    .   .   .      .   .   .      .    .   .   .      .   .   .
- -----------------------------------------------------------------------
- -10(x32)---------------------------------------------------------------
- -7---------------------------------------------------------------------
- -0---------------------------------------------------------------------
- -----------------------------------------------------------------------
- -----------------------------------------------------------------------


- --------------------------------------------------------------------
- -11-----10-----------10-------------8-------------8-----------------
- ----7-------------------7-------------9-------------9-------------9-
- ------0----0-8------------0-8-0---------0-7-----------0-7-------0---
- ---------------0-8-0------------8-0---------0-5-0---------0-5-0-----
- --------------------------------------------------------------------
PM      .    .   .   .      .   .   .     .   .   .     .   .   ...
- --------------------------------------------------------------------
- -10(x16)----------------------------8(x16)--------------------------
- -10---------------------------------9-------------------------------
- -0----------------------------------0-------------------------------
- --------------------------------------------------------------------
- --------------------------------------------------------------------


- -----------------------------------------------------------------------
- -11-----10-----------10-------------11-----10-----------10-------------
- ----7-------------------7--------------7-------------------7-----------
- ------0----0-8------------0-8-0----------0----0-8------------0-8-0-----
- ---------------0-8-0------------8-0---------------0-8-0------------8-0-
- -----------------------------------------------------------------------
PM      .    .   .   .      .   .   .      .    .   .   .      .   .   .
- -----------------------------------------------------------------------
- -10(x32)---------------------------------------------------------------
- -7---------------------------------------------------------------------
- -0---------------------------------------------------------------------
- -----------------------------------------------------------------------
- -----------------------------------------------------------------------


- ------------------------------------------------------------------
- -11-----10-----------10-------------8-------------8---------------
- ----7-------------------7-------------9-------------9-------------
- ------0----0-8------------0-8-0---------0-7-----------0-7---/3\---
- ---------------0-8-0------------8-0---------0-5-0---------0-0000--
- ------------------------------------------------------------0000--
PM      .    .   .   .      .   .   .     .   .   .     .   . ....
- ------------------------------------------------------------------
- -10(x16)----------------------------8(x16)------------------------
- -10---------------------------------9-----------------------------
- -0----------------------------------0-----------------------/3\---
- ------------------------------------------------------------0000--
- ------------------------------------------------------------0000--
PM                                                            ....


[Riff 6] - [01:46] - [02:05]
- -----------------------------------------------------------------
- -10--------------10--------------10--------------5---------------
- -7---------------7---------------10--------------7---------------
- -0---------------0---------------8---------------5-----------3---
- -0---------------0---------------8---------------5-----------3---
- -0---------------0---------------8---------------5-----------3---

- -----------------------------------------------------------------
- -10--------------10--------------10--------------5---------------
- -7---------------7---------------10--------------7---------------
- -0---------------0---------------8---------------5---------------
- -0---------------0---------------8---------------5---------------
- -0---------------0---------------8---------------5---------------

[Riff 3b] - [01:46] - [02:05] - [x2]


[Riff 7, Guitar 1 & 2] - [02:05] - [02:26]
- ------------------------------------
- ------------------8------------10---
- --------------------9--------9------
- ----------------------0-10-7------0-
- -0----------0-0-0-------------------
- -0----------0-0-0-------------------
PM ................
- ------------------------------------
- ------------------8------------10---
- --------------------9--------9------
- -10-----9-------------0-10-7------0-
- ----7-0---5-0-0-0-------------------
- ------0-----0-0-0-------------------
PM    .     .....     .           .


- ----------------------------------------------------------------------
- ------------------8------------10-------------------------------------
- --------------------9--------9-------------------------------9--------
- -10-----9-----7-------0-10-7------------7-------------10-7-----10-----
- ----7-0---5-0---0-----------------000-5---0-7-0-8---0------0------0-0-
- ----------------------------------000------------10-0------0------0-0-
PM      .     .   .     .           ...     .   .      .      .      ...
- ----------------------------------------------------------------------
- ------------------8------------10-------------------------------------
- --------------------9--------9-------------------------------9--------
- -10-----9-----7-------0-10-7------------7-------------10-7-----10-----
- ----7-0---5-0---0-----------------000-5---0-7-0-8---0------0------0-0-
- ----------------------------------000------------10-0------0------0-0-
PM      .     .   .     .           ...     .   .      .      .      ...


- ----------------------------------------------------------------------
- ------------------8------------10-------------------------------------
- --------------------9--------9-------------------------------9--------
- -10-----9-----7-------0-10-7------------7-------------10-7-----10-----
- ----7-0---5-0---0-----------------000-5---0-7-0-8---0------0------0-0-
- ----------------------------------000------------10-0------0------0-0-
PM      .     .   .     .           ...     .   .      .      .      ...
- ----------------------------------------------------------------------
- ------------------8------------10-------------------------------------
- --------------------9--------9-------------------------------9--------
- -10-----9-----7-------0-10-7------------7-------------10-7-----10-----
- ----7-0---5-0---0-----------------000-5---0-7-0-8---0------0------0-0-
- ----------------------------------000------------10-0------0------0-0-
PM      .     .   .     .           ...     .   .      .      .      ...


- ----------------------------------------------------------------------
- ------------------8------------10------------------------------------
- --------------------9--------9-------------------------------9--------
- -10-----9-----7-------0-10-7------------7-------------10-7-----10-----
- ----7-0---5-0---0-----------------000-5---0-7-0-8---0------0------0-0-
- ----------------------------------000------------10-0------0------0-0-
PM      .     .   .     .           ...     .   .      .      .      ...
- ----------------------------------------------------------------------
- ----------------------------------------------------------------------
- ----------------------------------------------------------------------
- ----------------------------------------------------------------------
- -0----------------0-000-----------000---------0-0-0-0------0------0-0-
- -0----------------0-000-----------000---------0-0-0-0------0------0-0-
PM ....................................................................


- ------------------------------------------------------------8------------
- ------------------8------------10-------------------11----------11----11-
- --------------------9--------9-------------------------10----------10----
- -10-----9-----7-------0-10-7------------7-----------------8--------------
- ----7-0---5-0---0-----------------000-5---0-7-0-8------------------------
- ----------------------------------000------------10----------------------
PM      .     .   .     .           ...     .   .
- ------------------------------------------------------------8------------
- ----------------------------------------------------11----------11----11-
- -------------------------------------------------------10----------10----
- ----------------------------------------------------------8--------------
- -0----------------0-000-----------000------------------------------------
- -0----------------0-000-----------000------------------------------------
PM .....................................


[Riff 8a] - [02:26] - [02:45]
- -8----8--8--8----8--8----------8--------------------------------------------------------
- -11---11-11-11---11-11-11----------11----11-10---10-10-10---10-10---------10------------
- -10---10-10-10---10-10----10----------10----10---10-10-10---10-10-10-----------10----10-
- -8----8--8--8----8--8--------8--------------10---10-10-10---10-10----10-----------10----
- --------------------------------------------12---12-12-12---12-12-------12--------------
- ----------------------------------------------------------------------------------------

- ------------------------------------------------------------------------------------------
- -10---10-10-10---10-10---------10------------13---13-13-13---13-13----------13------------
- -10---10-10-10---10-10-10-----------10----10-10---10-10-10---10-10-10------------10----10-
- -12---12-12-12---12-12----12-----------10----12---12-12-12---12-12----12------------10----
- -13---13-13-13---13-13-------13--------------13---13-13-13---13-13-------13---------------
- ------------------------------------------------------------------------------------------

- -8----8--8--8----8--8----------8--------------------------------------------------------
- -11---11-11-11---11-11-11----------11----11-10---10-10-10---10-10---------10------------
- -10---10-10-10---10-10----10----------10----10---10-10-10---10-10-10-----------10----10-
- -8----8--8--8----8--8--------8--------------10---10-10-10---10-10----10-----------10----
- --------------------------------------------12---12-12-12---12-12-------12--------------
- ----------------------------------------------------------------------------------------

- -----------------------------------------------------------------------------------
- -10---10-10-10---10-10---------10------------13---13-13-13---13-13-----------------
- -10---10-10-10---10-10-10-----------10----10-10---10-10-10---10-10-----------------
- -12---12-12-12---12-12----12-----------10----12---12-12-12---12-12-----------------
- -13---13-13-13---13-13-------13--------------13---13-13-13---13-13-3---------5---5-
- ---------------------------------------------------------------------5-0-3-0---0---
PM                                                                       .   .   .

[Riff 8b] - [02:26] - [02:45]
- -----------------------------------------------------------------
- -----------------------------------------------------------------
- -----------------------------------------------------------------
- -8---8-8-8---8-8-8-8-8-8---8-8-8-3---3-3-3---3-3-3-3-3-3---3-3-3-
- -8---8-8-8---8-8-8-8-8-8---8-8-8-3---3-3-3---3-3-3-3-3-3---3-3-3-
- -8---8-8-8---8-8-8-8-8-8---8-8-8-3---3-3-3---3-3-3-3-3-3---3-3-3-

- -----------------------------------------------------------------
- -----------------------------------------------------------------
- -----------------------------------------------------------------
- -5---5-5-5---5-5-5-5-5-5---5-5-5-5---5-5-5---5-5-5-5-5-5---5-5-5-
- -5---5-5-5---5-5-5-5-5-5---5-5-5-5---5-5-5---5-5-5-5-5-5---5-5-5-
- -5---5-5-5---5-5-5-5-5-5---5-5-5-5---5-5-5---5-5-5-5-5-5---5-5-5-

- -----------------------------------------------------------------
- -----------------------------------------------------------------
- -----------------------------------------------------------------
- -8---8-8-8---8-8-8-8-8-8---8-8-8-3---3-3-3---3-3-3-3-3-3---3-3-3-
- -8---8-8-8---8-8-8-8-8-8---8-8-8-3---3-3-3---3-3-3-3-3-3---3-3-3-
- -8---8-8-8---8-8-8-8-8-8---8-8-8-3---3-3-3---3-3-3-3-3-3---3-3-3-

- -----------------------------------------------------------------
- -----------------------------------------------------------------
- -----------------------------------------------------------------
- -5---5-5-5---5-5-5-5-5-5---5-5-5-5---5-5-5---5-5-----------------
- -5---5-5-5---5-5-5-5-5-5---5-5-5-5---5-5-5---5-5-3---------5---5-
- -5---5-5-5---5-5-5-5-5-5---5-5-5-5---5-5-5---5-5---5-0-3-0---0---
PM                                                     .   .   .

[Riff 8c] - [02:35] - [02:48]
- ----------------10---------------------10-------------
- -----11h13---13----11----------13---13----11----------
- ---12-----------------12-10-12---------------12-10-12-
- -12---------------------------------------------------
- ------------------------------------------------------
- ------------------------------------------------------

- -------------------------------------------------------------------
- -11-10----------------------------10----10-11-13br---11-10---------
- -------12-10----------------10-12----12--------------------12-10---
- -------------12-10----10-12----------------------------------------
- -------------------13----------------------------------------------
- -------------------------------------------------------------------

- ----------------------------------------------------
- -10----------------10-11-10h11p10----------------10-
- ----10----------------------------10----------10----
- -------12-10----12-------------------12----12-------
- -------------13-------------------------13----------
- ----------------------------------------------------

- ------------10--------------
- ----------11--10------------
- --------12------10----------
- ------12----------12--------
- -10h13--------------12------
- ----------------------15p12-

[Riff 9] - [02:48] - [02:54]
- -----------------------------------------------------------------
- -----------------------------------------------------------------
- -----------------------------------------------------------------
- -0---------------------------------------------------------------
- -0-----------------------------------------------3---------5---5-
- -0-------------------------------------------------5-0-3-0---0---
PM                                                     .   .   .

- -----------------------------------------------------------------
- -----------------------------------------------------------------
- -----------------------------------------------------------------
- -0---------------------------------------------------------5-----
- -0-----------------------------------------------3---------3-----
- -0-------------------------------------------------5-0-3-0-3-----
PM                                                     .   .

[Riff 10] - [02:54] - [03:14]
- -----------------------------------------------------------------
- -----------------------------------------------------------------
- -----------------------------------------------------------------
- -----------------------------------------------------------------
- -0-0---------0---0-0---------0-0-----0-0-------------0-0-0---0-0-
- -0-0---------0---0-0---------0-0-----0-0-------------0-0-0---0-0-
PM ...............................................................

- -----------------------------------------------------------------
- -----------------------------------------------------------------
- -----------------------------------------------------------------
- -----------------------------------------------------------------
- ---0---------0---0-0---------0-0-----0-0---------3---------5---5-
- ---0---------0---0-0---------0-0-----0-0-----------5-0-3-0---0---
PM .......................................             .   .   .

- -----------------------------------------------------------------
- -----------------------------------------------------------------
- -----------------------------------------------------------------
- -0---------------------------------------------------------------
- -0-----------0---0-0---------0-0-----0-0-------------0-0-0---0-0-
- -0-----------0---0-0---------0-0-----0-0-------------0-0-0---0-0-
PM             ...................................................

- -------------------------------------------------------------------------------------------------
- -------------------------------------------------------------------------------------------------
- -------------------------------------------------------------------------------------------------
- ---------------------------------------------------------------------------------0---------------
- ---0---------0---0-0---------0-0-----0-0---------3---------5---5-3---------5---5-0---------------
- ---0---------0---0-0---------0-0-----0-0-----------5-0-3-0---0-----5-0-3-0---0---0---------------
PM .......................................             .   .   .       .   .   .

[Symbols]

PM... Palm Mute notes with (...) under them
AP... Alternate Pick notes with (...) under them
h     Hammer On
p     Pull Off
[ ]   Harmonic
/     Slide Up
\     Slide Down
x     Dead Note
b     Bend
hb    Hold Bend
pb    Pre-Bend
r     Release Bend
(x )  Play Notes x amount of times
~     Let Ring
\\\   Pick Slide Down
///   Pick Slide Up
/ 3 \ Notes are triplets (3 notes in the space of two)
w\    Whammy Bar Down
w/    Whammy Bar Up
wh    Whammy Bar Hold
T     Right Hand Tap
L     Left Hand Tap

:)

            
            
Suggest correction
Creating personal tab
Creating personal tab
You can edit any tab online and save it as your Personal.

You can edit, replace or remove any tab part or add personal notes – all changes will be seen only by you.

Personal tabs can be accessed anytime from any device, even offline.
Learn more »
Give kudos to tab author, rate the tab!
1 2 3 4 5
comments
print report bad tab
guest
You may want to rate the tab now too:
select rating
Wanna post a correction for this tab? Suggest correction