Oops, an error
Loading. Please wait.

Its Not My First Rodeo tab

version 2
version 2

Whole song

Interactive

22 views 3 this week
no commentswrite comment
1 2 3 4 5
3 more votes to show rating
add to favorites
×
Save as Personal and add changes to this tab that will be seen only by you. Learn more ›
×
You can save this tab as Personal to edit and correct it or add notes. All changes will be seen only by you. Learn more »
launch autoscroll
font size
0
reset
how to read this tab
guitar tuner
edit
Autoscroll
slow
fast
+/-
esc
set tempo
stop
[This Isn't My First Rodeo]
[I Am]
[Texas In July]

Tuning: CGCFAD
Playthough: https://www.youtube.com/edit?o=U&video_id=VgzBP2dBybA

[Riff 1a] - [00:00] - [00:15] - [x4]
- ------------------------------------------------------------------------
- ------------------------------------------------------------------------
- -10-7-7-8---------------------------10-7-7-8---------10-7-------------9-
- ----------8-7-7-7-7----7-8-7----7------------8-7-7-7------8------7-10---
- --------------------10-------10---8-------------------------10-8--------
- ------------------------------------------------------------------------

[Riff 1b] - [00:07] - [00:17]
- -----------------------------------------------------------------
- -----------------------------------------------------------------
- -----------------------------------------------------------------
- -----------------------------------------------------------------
- -0---0-0---0-0-0-0-------0-0-0-----0-0-0---0-0---0-0-0-0-------0-
- -0---0-0---0-0-0-0-------0-0-0-----0-0-0---0-0---0-0-0-0-------0-
PM ...............................................................

- -----------------------------------------------------------------
- -----------------------------------------------------------------
- -----------------------------------------------------------------
- -----------------------------------------------------------------
- -0---0-0---0-0-0-0-------0-0-0-----0-0-0---0-0---0-0-0-0---------
- -0---0-0---0-0-0-0-------0-0-0-----0-0-0---0-0---0-0-0-0---------
PM .......................................................

- ---------------------------------
- ---------------------------------
- ---------------------------------
- ---------------------------------
- -0-0-0---0-0-----0-0---0-0-0-0---
- -0-0-0---0-0-----0-0---0-0-0-0---
PM ...............................

[Riff 1a] - [00:17] - [00:24] - [x2]

[Riff 1c] - [00:17] - [00:25]
- -----------------------------------------------------------------
- -----------------------------------------------------------------
- -----------------------------------------------------------------
- -----------------------------------------------------------------
- -----------------------------------------------------------------
- -0---0-0---0-0-0-0-------0-0-0-----0-0-0---0-0---0-0-0-0---0---0-

- -----------------------------------------------------------------
- -----------------------------------------------------------------
- -----------------------------------------------------------------
- -----------------------------------------------------------------
- -----------------------------------------------------------------
- -0-0-0---0-0-0---0-0---0-0-0-0---0-0-0-0---0-0---0-0-0-0---0---0-

- -----------------
- -----------------
- -----------------
- -----------------
- -----------------
- -0-0---0---0-0---

[Riff 2a] - [00:25] - [00:51] - [x4.5]
- -------------------------------------------------------------------------------------------------
- -------------------------------------------------------------------------------------------------
- -------------------------------------------------------------------------------------------------
- -------------------------------------------------------------------------------------------------
- -0-0---0---0-0-------------0-0-0-0-0-------------0-0-----0-0---------0-0-0-0-----0-0---0---0-0---
- -0-0---0---0-0-------------0-0-0-0-0-------------0-0-----0-0---------0-0-0-0-----0-0---0---0-0---
PM ...............................................................................................

[Riff 2b] - [00:36] - [00:51] - [x2]
- -----------------------------------------------------------------
- -6-6-6-6-6-6-6-6-6-6-6-6-6-6-6-6-6-6-6-6-6-6-6-6-6-6-6-6-6-6-6-6-
- -7-7-7-7-7-7-7-7-7-7-7-7-7-7-7-7-7-7-7-7-7-7-7-7-7-7-7-7-7-7-7-7-
- -0-0-0-0-0-0-0-0-0-0-0-0-0-0-0-0-0-0-0-0-0-0-0-0-0-0-0-0-0-0-0-0-
- -----------------------------------------------------------------
- -----------------------------------------------------------------

- -----------------------------------------------------------------
- -5-5-5-5-5-5-5-5-5-5-5-5-5-5-5-5-5-5-5-5-5-5-5-5-5-5-5-5-5-5-5-5-
- -5-5-5-5-5-5-5-5-5-5-5-5-5-5-5-5-5-5-5-5-5-5-5-5-5-5-5-5-5-5-5-5-
- -0-0-0-0-0-0-0-0-0-0-0-0-0-0-0-0-0-0-0-0-0-0-0-0-0-0-0-0-0-0-0-0-
- -----------------------------------------------------------------
- -----------------------------------------------------------------

[Riff 3] - [00:51] - [00:53]
- ------------------------------------
- -----------------11-------10--------
- --------------------0-5/7----0-0-10-
- -0----------------------------------
- -0----------------------------------
- -0----------------------------------
PM                    .        ...

[Riff 4] - [00:53] - [01:16] - [x6]
- ---------------------------------------------------------------------------
- -11-------10---------------------------11-------10-------------------------
- ----0-5/7----0-0-10-0-9-------------------0-5/7----0-0-10-0-------10-------
- ------------------------10-0-10/12p8-0----------------------8p7------8p7-0-
- ----------------------------------------------------------------8----------
- ---------------------------------------------------------------------------
PM    .        ...    .      .         .    .        ...    .     .        .

[Riff 2b] - [01:01] - [01:16] - [x2]
[Riff 1a] - [01:16] - [01:50] - [x9]

[Riff 5a] - [01:16] - [01:31] - [x2]
- ---------------------------------------------------------------------------------
- ---------------------------------------------------------------------------------
- ---------------------------------------------------------------------------------
- -8-8-8-8-8-8-8-8-8-8-8-8-8-8-8-8-10-10-10-10-10-10-10-10-10-10-10-10-10-10-10-10-
- -8-8-8-8-8-8-8-8-8-8-8-8-8-8-8-8-10-10-10-10-10-10-10-10-10-10-10-10-10-10-10-10-
- -8-8-8-8-8-8-8-8-8-8-8-8-8-8-8-8-10-10-10-10-10-10-10-10-10-10-10-10-10-10-10-10-

- -------------------------------------------------------------------------------------------------
- -------------------------------------------------------------------------------------------------
- -14-14-14-14-14-14-14-14-14-14-14-14-14-14-14-14-14-14-14-14-14-14-14-14-14-14-14-14-14-14-14-14-
- -x--x--x--x--x--x--x--x--x--x--x--x--x--x--x--x--x--x--x--x--x--x--x--x--x--x--x--x--x--x--x--x--
- -12-12-12-12-12-12-12-12-12-12-12-12-12-12-12-12-12-12-12-12-12-12-12-12-12-12-12-12-12-12-12-12-
- -------------------------------------------------------------------------------------------------

[Riff 5b] - [01:31] - [01:43]
- ---------------------------------------------------------------------------------
- ---------------------------------------------------------------------------------
- ---------------------------------------------------------------------------------
- -8-8-8-8-8-8-8-8-8-8-8-8-8-8-8-8-10-10-10-10-10-10-10-10-10-10-10-10-10-10-10-10-
- -8-8-8-8-8-8-8-8-8-8-8-8-8-8-8-8-10-10-10-10-10-10-10-10-10-10-10-10-10-10-10-10-
- -8-8-8-8-8-8-8-8-8-8-8-8-8-8-8-8-10-10-10-10-10-10-10-10-10-10-10-10-10-10-10-10-

- -------------------------------------------------------------------------------------------------
- -------------------------------------------------------------------------------------------------
- -------------------------------------------------------------------------------------------------
- -12-12-12-12-------------12-12-12-12-12-12-12-12-12-12-12-12-------------12-12-12-12-12-12-12-12-
- -12-12-12-12-------------12-12-12-12-12-12-12-12-12-12-12-12-------------12-12-12-12-12-12-12-12-
- -12-12-12-12-------------12-12-12-12-12-12-12-12-12-12-12-12-------------12-12-12-12-12-12-12-12-

- -------------------------------------------------------------------------------------------------
- -------------------------------------------------------------------------------------------------
- -------------------------------------------------------------------------------------------------
- -12-12-12-12-------------12-12-12-12-12-12-12-12-12-12-12-12-------------12-12-12-12-12-12-12-12-
- -12-12-12-12-------------12-12-12-12-12-12-12-12-12-12-12-12-------------12-12-12-12-12-12-12-12-
- -12-12-12-12-------------12-12-12-12-12-12-12-12-12-12-12-12-------------12-12-12-12-12-12-12-12-

[Riff 5c] - [01:43] - [01:50]
- -----------------------------------------------------------------
- -----------------------------------------------------------------
- -----------------------------------------------------------------
- -0---0-0---0-0-0-0-------0-0-0-----0-0-0---0-0---0-0-0-0-------0-
- -0---0-0---0-0-0-0-------0-0-0-----0-0-0---0-0---0-0-0-0-------0-
- -0---0-0---0-0-0-0-------0-0-0-----0-0-0---0-0---0-0-0-0-------0-

- -----------------------------------------------------------------
- -----------------------------------------------------------------
- -----------------------------------------------------------------
- -0---0-0---0-0-0-0-------0-0-0-----0-0-0---0-0---0-0-0-0-0-------
- -0---0-0---0-0-0-0-------0-0-0-----0-0-0---0-0---0-0-0-0-0-------
- -0---0-0---0-0-0-0-------0-0-0-----0-0-0---0-0---0-0-0-0-0-------

[Riff 6a] - [01:50] - [01:58]
- ------------------------------------------------------------------------
- ------------------------------------------------------------------------
- -10-7-7-8---------------------------10-7-7-8---------10-7-------------9-
- ----------8-7-7-7-7----7-8-7----7------------8-7-7-7------8------7-10---
- --------------------10-------10---8-------------------------10-8--------
- ------------------------------------------------------------------------

- -----------------------------------------------------------------------
- -----------------------------------------------------------------------
- -10-7-7-8---------------------------10-7-7-8---------10-7--------------
- ----------8-7-7-7-7----7-8-7----7------------8-7-7-7------8----0---5---
- --------------------10-------10---8-------------------------10-0---5---
- ---------------------------------------------------------------0---5---

[Riff 6b] - [01:50] - [01:58]
- -----------------------------------------------------------------
- -----------------------------------------------------------------
- -----------------------------------------------------------------
- -----------------------------------------------------------------
- -0---0-0---0-0-0-0-------0-0-0-----0-0-0---0-0---0-0-0-0-------0-
- -0---0-0---0-0-0-0-------0-0-0-----0-0-0---0-0---0-0-0-0-------0-
PM ...............................................................

- -----------------------------------------------------------------
- -----------------------------------------------------------------
- -----------------------------------------------------------------
- ---------------------------------------------------------0---5---
- -0---0-0---0-0-0-0-------0-0-0-----0-0-0---0-0---0-0-0-0-0---5---
- -0---0-0---0-0-0-0-------0-0-0-----0-0-0---0-0---0-0-0-0-0---5---
PM .......................................................


[Riff 8a, Guitar 1 & 2] - [01:58] - [02:13] - [x4]
- -----------------------------------------------------------------
- -----------------------------------------------------------------
- -----------------------------------------------------------------
- -8-----8-----8---8-----8---------0-----0-----0---10----10--------
- -8-----8-----8---8-----8-----0-0-0-----0-----0---10----10----7-7-
- -8-----8-----8---8-----8-----0-0-0-----0-----0---10----10----7-7-
PM                             ...                             ...
- -----------------------------------------------------------------
- ---------------------------------10----10----10------------------
- -10----10----10--10----10----10--10----10----10--12----12----12--
- -12----12----12--12----12----12--0-----0-----0---14----14----14--
- -8-----8-----8---8-----8-----8---0-----0-----0---10----10----10--
- -8-----8-----8---8-----8-----8---0-----0-----0---10----10----10--


[Riff 8b, Guitar 1 & 2] - [02:13] - [02:28] - [x4]
- -----------------------------------------------------------------
- -----------------------------------------------------------------
- -10--------10/---10--------10/---12--------12\---5---------5/----
- -x---------x-----x---------x-----x---------x-----x---------x-----
- -8---0-0-0-8/----8---0-0-0-8/----10--0-0-0-10\---3---0-0-0-3/----
- -----0-0-0-----------0-0-0-----------0-0-0-----------0-0-0-------
PM     .....           .....           .....           .....
- -----------------------------------------------------------------
- ---------------------------------10----10----10------------------
- -10----10----10--10----10----10--10----10----10--12----12----12--
- -12----12----12--12----12----12--0-----0-----0---14----14----14--
- -8-----8-----8---8-----8-----8---0-----0-----0---10----10----10--
- -8-----8-----8---8-----8-----8---0-----0-----0---10----10----10--


- -----------------------------------------------------------------
- -----------------------------------------------------------------
- -14--------14----14--------14----17--------17----17--------9-----
- -x---------x-----x---------x-----x---------x-----x---------x-----
- -12--0-0-0-12----12--0-0-0-12----15--0-0-0-15----15--0-0-0-7-----
- -----0-0-0-----------0-0-0-----------0-0-0-----------0-0-0-------
PM     .....           .....           .....           .....
- -----------------------------------------------------------------
- ---------------------------------10----10----10------------------
- -10----10----10--10----10----10--10----10----10--12----12----12--
- -12----12----12--12----12----12--0-----0-----0---14----14----14--
- -8-----8-----8---8-----8-----8---0-----0-----0---10----10----10--
- -8-----8-----8---8-----8-----8---0-----0-----0---10----10----10--


[Riff 9a] - [02:28] - [02:43] - [x2]
- -----------------------------------------------------------------
- -----------------------------------------------------------------
- -10--------10/---10--------10/---12--------12\---5---------5/----
- -x---------x-----x---------x-----x---------x-----x---------x-----
- -8---0-0-0-8/----8---0-0-0-8/----10--0-0-0-10\---3---0-0-0-3/----
- -----0-0-0-----------0-0-0-----------0-0-0-----------0-0-0-------
PM     .....           .....           .....           .....

- -----------------------------------------------------------------
- -----------------------------------------------------------------
- -14--------14----14--------14----17--------17----17--------9-----
- -x---------x-----x---------x-----x---------x-----x---------x-----
- -12--0-0-0-12----12--0-0-0-12----15--0-0-0-15----15--0-0-0-7-----
- -----0-0-0-----------0-0-0-----------0-0-0-----------0-0-0-------
PM     .....           .....           .....           .....

[Riff 9b] - [02:28] - [02:58] - [x4]
- -------------------------------------------------------------------------------------------------
- ----------------------------------------------------------17-13-------------------17-13----------
- -17----------------17----17----------------17----17----------------17----17----------------17----
- ----15-14-------14----15----15-14-------14----15----15-12-------15----15----15-12-------15----15-
- ----------17-15-------------------17-15----------------------------------------------------------
- -------------------------------------------------------------------------------------------------

- -17----------------------17----------------------------------------------------------------------
- ----15-------------17-------15---------------------------17-13-------------------17-13-----------
- -------14-------14----14-------14-------14-17----17----------------17----17----------------17----
- ----------17-15-------------------17-15-------12----15-12-------15----15----15-12-------15----15-
- -------------------------------------------------------------------------------------------------
- -------------------------------------------------------------------------------------------------

[Riff 9c] - [02:58] - [02:58] - [x2]
- -----------------------------------------------------------------
- -----------------------------------------------------------------
- -----------------------------------------------------------------
- -----------------------------------------------------------------
- -0-0---0-0-0-------0-0-0---0-0-0-0-0---0-0---0-0-----------0-0-0-
- -0-0---0-0-0-------0-0-0---0-0-0-0-0---0-0---0-0-----------0-0-0-
PM ...............................................................

- -----------------------------------------------------------------
- -----------------------------------------------------------------
- -----------------------------------------------------------------
- -----------------------------------------------------------------
- -0---0-0---0-0-----0-0-0---0-0-0-0-0---0-0---0-0-------------0-0-
- -0---0-0---0-0-----0-0-0---0-0-0-0-0---0-0---0-0-------------0-0-
 PM ...............................................................


[Riff 10] - [02:58] - [03:14]
- -----------------------------------------------------------------
- -----------------------------------------------------------------
- -----------------------------------------------------------------
- -----------------------------------------------------------------
- -0-0---0-0-0---------0-0-----0-0-0-0---0-0---0-0-------------0-0-
- -0-0---0-0-0---------0-0-----0-0-0-0---0-0---0-0-------------0-0-
PM ...............................................................

- -----------------------------------------------------------------
- -----------------------------------------------------------------
- -----------------------------------------------------------------
- -----------------------------------------------------------------
- -0---0-0---0-0-------0-0-0---0-0-0-0---0-0---0-0-----------------
- -0---0-0---0-0-------0-0-0---0-0-0-0---0-0---0-0-----------------
PM ...............................................................

- -----------------------------------------------------------------
- -----------------------------------------------------------------
- -----------------------------------------------------------------
- -----------------------------------------------------------------
- -0-0-----------------0-0-----0-0-0-0---0-0---0-0-------------0---
- -0-0-----------------0-0-----0-0-0-0---0-0---0-0-------------0---
PM ...............................................................

- -----------------------------------------------------------------
- -----------------------------------------------------------------
- -----------------------------------------------------------------
- -----------------------------------------------------------------
- -0-0-----------------0-0-----0-0-0-0---0-0---0-0-0-0-0-0---0-0---
- -0-0-----------------0-0-----0-0-0-0---0-0---0-0-0-0-0-0---0-0---
PM ...............................................................

- -----------------------------------------------------------------
- -----------------------------------------------------------------
- -----------------------------------------------------------------
- -0---------------------------------------------------------------
- -0---------------------------------------------------------------
- -0---------------------------------------------------------------

[Symbols]

PM... Palm Mute notes with (...) under them
AP... Alternate Pick notes with (...) under them
h     Hammer On
p     Pull Off
[ ]   Harmonic
/     Slide Up
\     Slide Down
x     Dead Note
b     Bend
hb    Hold Bend
pb    Pre-Bend
r     Release Bend
(x )  Play Notes x amount of times
~     Let Ring
\\\   Pick Slide Down
///   Pick Slide Up
/ 3 \ Notes are triplets (3 notes in the space of two)
w\    Whammy Bar Down
w/    Whammy Bar Up
wh    Whammy Bar Hold
T     Right Hand Tap
L     Left Hand Tap

:)

            
            
Suggest correction
Creating personal tab
Creating personal tab
You can edit any tab online and save it as your Personal.

You can edit, replace or remove any tab part or add personal notes – all changes will be seen only by you.

Personal tabs can be accessed anytime from any device, even offline.
Learn more »
Give kudos to tab author, rate the tab!
1 2 3 4 5
comments
print report bad tab
guest
You may want to rate the tab now too:
select rating
Wanna post a correction for this tab? Suggest correction