Oops, an error
Loading. Please wait.

Estoy Enamorada Tab

by Thalia
488 views 1 this week
no commentswrite comment
1 2 3 4 5
3 more votes to show rating
add to favorites
launch autoscroll
font size
0
reset
how to read this tab
guitar tuner
Autoscroll
slow
fast
+/-
esc
set tempo
stop
Hola gente bueno antes que nada saque este intro a oido, a mi gusto
suena bastante bien. los tiempos los sacan escuchando el tema.
saludos. M4TT

es del video de Thalia con Pedro Capo

Estoy enamorad
intro


e|--------------10----------------------------------
B|--7/10-----10----10/12-------12-10-12-10-12-10----
G|---------11----------------12---------------------
D|--------------------------------------------------
A|--------------------------------------------------
E|--------------------------------------------------


e|--------------------------------------------------|
B|---7-8-8-7----------------------------------------|
G|-9---------9-7-9/11-------------------------------|
D|--------------------------------------------------|
A|--------------------------------------------------|
E|--------------------------------------------------|


e|--------------10----------------------------------
B|--7/10-----10----10/12-------12-10-12-10-12-10----
G|---------11----------------12---------------------
D|--------------------------------------------------
A|--------------------------------------------------
E|--------------------------------------------------


e|--------------------------------------------------|
B|---7-8-8-7----------------------------------------|
G|-9---------9-7-9/11-------------------------------|
D|--------------------------------------------------|
A|--------------------------------------------------|
E|--------------------------------------------------|

-si tienen alguna duda escribanme al mail, y les respondo.
saludos. M4TT
Suggest correction
Give kudos to tab author, rate the tab!
1 2 3 4 5
comments
print report bad tab
guest
You may want to rate the tab now too:
select rating
Wanna post a correction for this tab? Suggest correction