Oops, an error
Loading. Please wait.

Sad Boys Club chords

by Thalles
223 views 3 this week
1 commentread comment
1 2 3 4 5
2 more votes to show rating
add to favorites
×
Save as Personal and add changes to this tab that will be seen only by you. Learn more ›
×
You can save this tab as Personal to edit and correct it or add notes. All changes will be seen only by you. Learn more »
launch autoscroll
font size
0
reset
transpose
0
reset
display chords
guitar tuner
edit
Autoscroll
slow
fast
+/-
esc
set tempo
stop
Author
Strumming
There is no strumming pattern for this song yet. and get +5 IQ
1:40
e|-------------------------|
B|-------------------------|
G|-------------------------|
D|----8-10-12-8-10p8-------|
A|-10----------------h10---|
E|-------------------------|

1:56
e|-----------------|
B|--------------8--|
G|---------7-10----|
D|----8-10---------|
A|-10--------------|
E|-----------------|

2:02
e|-----------------------|
B|-----------------------|
G|-----------------------|
D|---8~---------10-8-----|
A|-x----10---10------10--|
E|-----------------------|

2:11
e|-----------------|
B|-----------------|
G|-----------------|
D|-10br-8-10-8-----|
A|-------------10--|
E|-----------------|

2:36
e|----------------|
B|----------------|
G|----------------|
D|-12\10--8-7-----|
A|------------10--|
E|----------------|

3:55
e|-------------------|-------------------|
B|-------------------|-------------------|
G|-------------------|-------------------|x4
D|---/8-8--7~-7~--5--|---/8-8--7~-7~--5--|
A|-5-----------------|-6-----------------|
E|-------------------|-------------------|

| /  slide up
| \  slide down
| h  hammer-on
| p  pull-off
| br bend release
| ~  vibrato
| x  Mute note

[Intro]
   Gm              Gm                 C                  C
e|---------------------------------|----------------------------------------|
B|---------------------------------|----------------------------------------|
G|--------------3---------------3--|------------------9------------------9--|
D|--------5---5-----------5---5----|---------10----10-----------10----10----|
A|------5---5-----------5---5------|------10----10-----------10----10-------|
E|--3---------------3--------------|--8------------------8------------------|

This carries on throughout the intro.

[Intro]
Gm                             C                                        
Hey little boy, why do you stay?
Gm
When he was young, his father said
C
"Son, life is beautiful
Gm                C                             Gm
Just look at the sky and you will see son what I say”

[Verse]
Gm              Bb                           C
Never fall in love with who you are
Gm           Bb           C
Don't ever say your real name, you can be whoever you want
Gm        Bb        C
Just say the right words
Gm              Bb                      C
And you will go far and fly high like a bird

[Chorus]
Gm      Bb          C
Welcome back to the sad boys club
Gm          Bb                        C
My lady I'm here to make you feel the love
Gm             Bb                  C
You pay me for love, and I am your boy
My body is yours
Gm              Bb             C
This place will be your best drug
And you'll be stuck

[Verse]
Gm           Bb                C
It's time to change to another name
Gm             Bb                C
I think a lot about leaving forever
But something about this place
Gm    Bb       C
Just makes me sing
Gm                 Bb             C
I never reach the surface when I drink

Gm        Bb                     C
I want to become what I am still not
Gm            Bb                           C
I'm tired of living in this fucking truck park
I haven't slept for months
Gm      Bb      C
They've come to us
Gm         Bb                  C
Asking for fun while holding a gun

[Chorus]
Gm      Bb          C
Welcome back to the sad boys club
Gm          Bb               C
My lady I'm here to make you feel the love
Gm             Bb                  C
You pay me for love, and I am your boy
My body is yours
Gm              Bb            C
This place will be your best drug
And you'll be stuck

[Bridge]
Eb                                   F*
He was born in chaos, violence and pain
Eb                           F                               Eb
Only nineteen he could have stepped out of a film by Gus Van Sant
                                   F                               Eb
With his long hair, red sunglasses and a shirt with Jim Morrison's name 
                                 F             C
Empty heart and blue eyes full of cocaine

[Chorus]
Gm      Bb          C
Welcome back to the sad boys club
Gm          Bb               C
My lady I'm here to make you feel the love
Gm             Bb                  C
You pay me for love, and I am your boy
My body is yours
Gm             Bb             C
This place will be your best drug
And you'll be stuck

Gm             Bb                  C
You pay me for love, and I am your boy
My body is yours
Gm             Bb                  C
You pay me for love, and I am your boy
My body is yours
Gm             Bb                  C
You pay me for love, and I am your boy
My body is yours
Gm             Bb                  C
You pay me for love, and I am your boy

[Outro]
Gm Bb C C x4

*recommend playing the F in the bridge as a barre on the 8th
Suggest correction
Creating personal tab
Creating personal tab
You can edit any tab online and save it as your Personal.

You can edit, replace or remove any tab part or add personal notes – all changes will be seen only by you.

Personal tabs can be accessed anytime from any device, even offline.
Learn more »
Give kudos to tab author, rate the tab!
1 2 3 4 5
comments
print report bad tab
1 comment total.
0 reply
imnotthatwise 67 Jan 29, 2017 02:20 PM

https://soundcloud.com/alex-pountchy/sad-boys-club-thallesintrumental-cover
my cover of the song

guest
You may want to rate the tab now too:
select rating
Wanna post a correction for this tab? Suggest correction