Oops, an error
Loading. Please wait.

Blood On The Radio Tab

154 views 21 this week
no commentswrite comment
1 2 3 4 5
3 more votes to show rating
add to favorites
launch autoscroll
font size
0
reset
how to read this tab
guitar tuner
Autoscroll
slow
fast
+/-
esc
set tempo
stop
Help us to improve Ultimate-Guitar.com Take our survey!
×
Author
Difficulty
intermediate
About this tab version
Learned by ear. Might make some corrections later. Was this info helpful? Yes No
Blood On The Radio Intro 
Tempo is about quarter note = 100 give or take

Time signatures are ridiculous

     E  S  S  S  S  T   T   S  S  S  S  S  S  S  S  
E||------------------------------------------------|
B||-------------10-10h-11p-10-------15-14----------|
G||-------10-12---------------12-10-------15-14-12-|
D||--7--7--L---------------------------------------|
A||--7--7--L---------------------------------------|
E||--5--5--L---------------------------------------|
 (Implied Chord)
    
     E  S  S  S  S  S  E    S  S  S  S  T   T   S  T   T   S  
E||----------------------------------------------------------|
B||----------------------------------------------------------|
G||-------10-12-14-------------------------------------------|
D||--7--7--L-------12-11~-----------10-12h-14p-12------------|
A||--7--7--L---------------13-12-13---------------15p-13p-12-|
E||--5--5--L-------------------------------------------------|


     E  S  S  S  S  T   T   S  S  S  S  S  S  S  S  
E||------------------------------------------------|
B||-------------10-10h-11p-10-------15-14----------|
G||-------10-12---------------12-10-------15-14-12-|
D||--7--7--L---------------------------------------|
A||--7--7--L---------------------------------------|
E||--5--5--L---------------------------------------|


     E  S  S  S  S  S  E    S  S  S  S  T   T   S  T   T   S  S  T   T   S  S  T   T  S
E||--------------------------------------------------------------------------------------|
B||--------------------------------------------------------------------------------------|
G||-------10-12-14-----------------------------------------------------------------------|
D||--7--7--L-------12-11~-----------10-12h-14p-12------------12------------12------------|
A||--7--7--L---------------13-12-13---------------15p-13p-12----15p-13p-12----15p-13p-12-|
E||--5--5--L-----------------------------------------------------------------------------|


     E   E   E   S   E   E   E   S      E   E   E   S   E   E   E   S   
E||----------------------------------|----------------------------------|
B||--10--10--10--10S-11--11--11--13s-|--10--10--10--10S-11--11--11--13s-|
G||----------------------------------|----------------------------------|
D||----------------------------------|----------------------------------|
A||----------------------------------|----------------------------------|
E||----------------------------------|----------------------------------|


     E   E   E   S   E   E   E   S      E   E   E   S   E   E   E   S   
E||----------------------------------|----------------------------------|
B||--10--10--10--10S-11--11--11--13s-|--10--10--10--10S-11--11--11--13\-|
G||----------------------------------|----------------------------------|
D||----------------------------------|----------------------------------|
A||----------------------------------|----------------------------------|
E||----------------------------------|----------------------------------|


     E  S  S  S  S  T   T   S  S  S  S  S  S  S  S  
E||------------------------------------------------|
B||-------------10-10h-11p-10-------15-14----------|
G||-------10-12---------------12-10-------15-14-12-|
D||--7--7--L---------------------------------------|
A||--7--7--L---------------------------------------|
E||--5--5--L---------------------------------------|


     E  S  S  S  S  S  E    S  S  S  S  T   T   S  T   T   S  
E||----------------------------------------------------------|
B||----------------------------------------------------------|
G||-------10-12-14-------------------------------------------|
D||--7--7--L-------12-11~-----------10-12h-14p-12------------|
A||--7--7--L---------------13-12-13---------------15p-13p-12-|
E||--5--5--L-------------------------------------------------|


     E  S  S  S  S  T   T   S  S  S  S  S  S  S  S  
E||------------------------------------------------|
B||-------------10-10h-11p-10-------15-14----------|
G||-------10-12---------------12-10-------15-14-12-|
D||--7--7--L---------------------------------------|
A||--7--7--L---------------------------------------|
E||--5--5--L---------------------------------------|


     E  S  S  S  S  S  E    S  S  S  S  T   T   S  T   T   S  S  T   T   S  S  S  S T  T  T  T  T  T  Q
E||-------------------------------------------------------------------------------------------------------|
B||-------------------------------------------------------------------------------------------------------|
G||-------10-12-14---------------------------------------------------------------------------10-12-14-10\-|
D||--7--7--L-------12-11~-----------10-12h-14p-12------------12---------------------11-12-14--------------|
A||--7--7--L---------------13-12-13---------------15p-13p-12----15p-13p-12-10-12-13-----------------------|
E||--5--5--L----------------------------------------------------------------------------------------------|

Not so sure about this part but this is what the chords sound like to me

Guitar 1

     E  E  Q    E  E  Q       E  E  Q    E  E  Q       E  E  Q    E  E  Q       E  E  E  S  E.   E   Q     
E||------------------------|------------------------|------------------------|----------------------------|
B||--6----------6----------|--5----------5----------|--8----------8----------|--------5----13---11--10----|
G||-----7----------7-------|-----7----------7-------|-----7----------7-------|-----7-----7----------------|
D||--------7----------7----|--------6----------6----|--------8----------8----|--6-------------------------|
A||------------------------|------------------------|------------------------|----------------------------|
E||------------------------|------------------------|------------------------|----------------------------|


Guitar 2

      H         H              H         H             H          E    Q.         Q.     S   E.    E    Q    
E||------------------------|----------------------|---------------------------|------------------------------|
B||--/10-------/10~--------|--\9-------/12--------|--/15--------\10S--11------|--\10-----L-/13S---11S--10----|
G||------------------------|----------------------|---------------------------|------------------------------|
D||------------------------|----------------------|---------------------------|------------------------------|
A||------------------------|----------------------|---------------------------|------------------------------|
E||------------------------|----------------------|---------------------------|------------------------------|


Back to a singular guitar

     E  E  E  S E  E  S E  E     E  E  E  S E  E  S S S S S    E  E  E  S E  E  S  S  S  S S  
E||---------------------------|-----------------------------|--------------------------------|
B||--6--6--6--6-6--6--6-8--8--|--5--5--5--5-5--5--5-6-8-6-5-|--8--8--8--8-8--8--8-10-11-10-8-|
G||---------------------------|-----------------------------|--------------------------------|
D||---------------------------|-----------------------------|--------------------------------|
A||---------------------------|-----------------------------|--------------------------------|
E||---------------------------|-----------------------------|--------------------------------|


     E   E   E   S   E.   E   Q        E  E  E  S E  E  S E  E   
E||---------------------------------|---------------------------|
B||--10--10--10--10-/13---11--10----|--6--6--6--6-6--6--6-8--8--|
G||---------------------------------|---------------------------|
D||---------------------------------|---------------------------|
A||---------------------------------|---------------------------|
E||---------------------------------|---------------------------|


     E  E  E  S E  E  S S S S S    E  E  E  S E  E  S  S  S  S S  
E||-----------------------------|--------------------------------|
B||--5--5--5--5-5--5--5-6-8-6-5-|--8--8--8--8-8--8--8-10-11-10-8-|
G||-----------------------------|--------------------------------|
D||-----------------------------|--------------------------------|
A||-----------------------------|--------------------------------|
E||-----------------------------|--------------------------------|


     E  E  Q     E   E   Q        E   E   Q     E   E   E   E           
E||--4--4--4-----7---7---7----|--10--10--10----13--13--13---L\--|-----||
B||--6--6--6-----9---9---9----|--12--12--12----15--15--15---L\--|-----||
G||--7--7--7----10--10--10----|--13--13--13----16--16--16---L\--|-----||
D||---------------------------|---------------------------------|-----||
A||---------------------------|---------------------------------|-----||
E||---------------------------|---------------------------------|-----||




Duration Legend
---------------
W - whole
H - half
Q - quarter
E - 8th
S - 16th
T - 32nd
X - 64th
. - note dotted
|-n-|  - n-tuplets


Tablature Legend
----------------
L - tied note
x - dead note
g - grace note
(n) - ghost note
> - accentuded note
NH - natural harmonic
AH - artificial harmonic
TH - tapped harmonic
SH - semi harmonic
PH - pitch harmonic
h - hammer on
p - pull off
b - bend
br - bendRelease
pb - preBend
pbr - preBendRelease
brb - bendReleaseBend
\n/ - tremolo bar dip
\n - tremolo bar dive
-/n - tremolo bar Release up
/n\ - tremolo bar inverted dip
/n - tremolo bar return
-\n - tremolo bar Release down
S - shift slide
s - legato slide
/ -  slide into from below or out of upwards
\ -  slide into from above or out of downwards
~ - vibrato
W - wide vibrato
tr - trill
TP - tremolo picking
T - tapping
S - slap
P - pop
< - fade in
^ - brush up
v - brush down
Suggest correction
Give kudos to tab author, rate the tab!
1 2 3 4 5
comments
print report bad tab
guest
You may want to rate the tab now too:
select rating
Wanna post a correction for this tab? Suggest correction