Oops, an error
Loading. Please wait.

Cry tab

310 views 3 this week
no commentswrite comment
1 2 3 4 5
1 last vote to show rating
add to favorites
×
Save as Personal and add changes to this tab that will be seen only by you. Learn more ›
×
You can save this tab as Personal to edit and correct it or add notes. All changes will be seen only by you. Learn more »
launch autoscroll
font size
0
reset
how to read this tab
guitar tuner
edit
Autoscroll
slow
fast
+/-
esc
set tempo
stop
Author
Album: A City Dressed In Dynamite


Intro

Guitar 1
|---------------------------------------4-5-4------------|
|----------5-6-5------------------------------6----------|
|-2-4-5----------7---5--4------2-4-5-------------5-/9----|
|--------------------------------------------------------|
|--------------------------------------------------------|
|--------------------------------------------------------|


Guitar 2                         
|-5--3--3-3---------4--4--4-4---| x2
|-5--5--5-5---------3--3--3-3---|
|-5--5--5-5---------4--4--4-4---|
|-7--5--5-5---------2--2--2-2---|
|-7--3--3-3---------------------|
|-5-----------------------------|


Riff 1

|--------------------------------------------------|
|--------------------------------------------------|
|--------------------------------------------------|
|------------------------7-6-6---------------------|
|------------------------------7--7--7-7-7-7--7----|
|-5-5-5--5--7--8-8-8--8--------------------------0-|
  . . .  .  .  . . .  .  . . . .  .  . . . .  .  .
|--------------------------------------------------|
|--------------------------------------------------|
|--------------------------------------------------|
|------------------------7-6-6---------------------|
|------------------------------7--7----5-5-5--5----|
|-5-5-5--5--7--8-8-8--8--------------0-----------0-|
  . . .  .  .  . . .  .  . . . .  .  . . . .  .  .

Riff 2

Guitar 1
|-5---5---3---3---4---4---4---4---5---5---3---3---4---4---4---3---|
|-5---5---5---5---3---3---3---3---5---5---5---5---3---3---3---2---|
|-5---5---5---5---4---4---4---4---5---5---5---5---4---4---4---3---|
|-----------------------------------------------------------------|
|-----------------------------------------------------------------|
|-----------------------------------------------------------------|


Guitar 2
|-5-5-5-3-3-3---4-4-4-4-4-4-------5-5-5-3-3-3---4-4-4-4-4-4---3---|
|-5-5-5-5-5-5---3-3-3-3-3-3-------5-5-5-5-5-5---3-3-3-3-3-3---2---|
|-5-5-5-5-5-5---4-4-4-4-4-4-------5-5-5-5-5-5---4-4-4-4-4-4---3---|
|-7-7-7-5-5-5---2-2-2-2-2-2-------7-7-7-5-5-5---2-2-2-2-2-2---1---|
|-7-7-7-3-3-3---------------------7-7-7-3-3-3---------------------|
|-5-5-5---------------------------5-5-5---------------------------|


Guitar 1
|-X-X-2--X-2--2--2-2----X-2--1--1-1--|
|-X-X-3--X-3--3--3-3----X-4--3--3-3--|
|-X-X-2--X-2--2--2-2----X-4--3--3-3--|
|------------------------------------|
|------------------------------------|
|------------------------------------|


Guitar 2
|-----2----2--2--2-2------2--1--1-1--|
|-----3----3--3--3-3------4--3--3-3--|
|-----2----2--2--2-2------4--3--3-3--|
|-----4----4--4--4-4------4--3--3-3--|
|-------------------------2--1--1-1--|
|------------------------------------|


Chorus

Guitar 1
|---------------------------------------4-5-4------------|
|----------5-6-5------------------------------6----------|
|-2-4-5----------7---5--4------2-4-5-------------5-/9----|
|--------------------------------------------------------|
|--------------------------------------------------------|
|--------------------------------------------------------|


Guitar 2
|-5--3--3-3---------4--4--4-4---| x2
|-5--5--5-5---------3--3--3-3---|
|-5--5--5-5---------4--4--4-4---|
|-7--5--5-5---------2--2--2-2---|
|-7--3--3-3---------------------|
|-5-----------------------------|


Riff 1

|--------------------------------------------------|
|--------------------------------------------------|
|--------------------------------------------------|
|------------------------7-6-6---------------------|
|------------------------------7--7--7-7-7-7--7----|
|-5-5-5--5--7--8-8-8--8--------------------------0-|
  . . .  .  .  . . .  .  . . . .  .  . . . .  .  .
|--------------------------------------------------|
|--------------------------------------------------|
|--------------------------------------------------|
|------------------------7-6-6---------------------|
|------------------------------7--7----5-5-5--5----|
|-5-5-5--5--7--8-8-8--8--------------0-----------0-|
  . . .  .  .  . . .  .  . . . .  .  . . . .  .  .

Riff 3

Guitar 1
|-0-------0-------4-------4-------0-------0-------4-------4-----3-----|
|-----1---------------3-------3-------1---------------3-----3-----2---|
|-------------3-------------------------------3-----------------------|
|---------------------------------------------------------------------|
|---------------------------------------------------------------------|
|---------------------------------------------------------------------|


Guitar 2
|-5---3-3-3-3----4---4-4-4-4----5---3-3-3-3----4---4-4-4-4----3-------|
|-5---5-5-5-5----3---3-3-3-3----5---5-5-5-5----3---3-3-3-3----2-------|
|-5---5-5-5-5----4---4-4-4-4----5---5-5-5-5----4---4-4-4-4----3-------|
|-7---5-5-5-5----2---2-2-2-2----7---5-5-5-5----2---2-2-2-2----1-------|
|-7---3-3-3-3-------------------7---3-3-3-3---------------------------|
|-5-----------------------------5-------------------------------------|


Guitar 1
|-2---------------------------|
|-----------4---------3--/----|
|----4---------4--------------|
|-----------------------------|
|-----------------------------|
|-----------------------------|


Guitar 2
|-----2---------------------|
|-----3---------------------|
|-----2---------------------|
|-----4---------------------|
|---------------------------|
|---------------------------|


Chorus

Guitar 1
|---------------------------------------4-5-4------------|
|----------5-6-5------------------------------6----------|
|-2-4-5----------7---5--4------2-4-5-------------5-/9----|
|--------------------------------------------------------|
|--------------------------------------------------------|
|--------------------------------------------------------|


Guitar 2
|-5--3--3-3---------4--4--4-4---| x2
|-5--5--5-5---------3--3--3-3---|
|-5--5--5-5---------4--4--4-4---|
|-7--5--5-5---------2--2--2-2---|
|-7--3--3-3---------------------|
|-5-----------------------------|


Solo

|---------------7--8--7--4h5p4--------5-------------|
|--------------------------------6\---5-------------|
|-------------------------------------5-------------|
|-------------------------------------7-------------|
|-------------------------------------7-------------|
|-4-5-4---1-0-------------------------5-------------|


|-------------------------------------5-------------|
|----------------5--------------5---3-5-------------|
|-------------4-----3/4-------4---2---5-------------|
|----------2--------------------------7-------------|
|----3--2-----------------------------7-------------|
|-0-----------------------------------5-------------|


|-------------------------------------------4-------|
|---1-3-3h4-4-3h4-4-3h4-4---------------1---3-------|
|-2-----------------------2-0-2-2--2--2---2-4-------|
|-------------------------------------------2-------|
|---------------------------------------------------|
|---------------------------------------------------|

|---------------------------------6-7------7h8p7-5-12---6-7--5----12---|
|-----------------------------4h5------------------13----------8--13---|
|-4-5-4-2-1----------------------------------------14-------------14---|
|-----------2-------2--------------------------------------------------|
|----------------------0-----------------------------------------------|
|----------------------------------------------------------------------|


Solo Rhythm

|-X-X-4-4-X-X-4-4-X-X-4-4-X-X-4-4-X-X-4-4-X-X-4-4-X-X-4-4-X-X-4-4-|
|-X-X-3-3-X-X-3-3-X-X-3-3-X-X-3-3-X-X-3-3-X-X-3-3-X-X-3-3-X-X-3-3-|
|-----------------------------------------------------------------|
|-----------------------------------------------------------------|
|-----------------------------------------------------------------|
|-----------------------------------------------------------------|


|-X-X-5-5-X-X-5-5-X-X-5-5-X-X-5-5-X-X-3-3-X-X-3-3-X-X-3-3-X-X-3-3-|
|-X-X-5-5-X-X-5-5-X-X-5-5-X-X-5-5-X-X-5-5-X-X-5-5-X-X-5-5-X-X-5-5-|
|-----------------------------------------------------------------|
|-----------------------------------------------------------------|
|-----------------------------------------------------------------|
|-----------------------------------------------------------------|


|-X-X-5-5-X-X-5-5-X-X-5-5-X-X-5-5-X-X-3-3-X-X-3-3-X-X-3-3-X-X-3-3-|
|-X-X-5-5-X-X-5-5-X-X-5-5-X-X-5-5-X-X-5-5-X-X-5-5-X-X-5-5-X-X-5-5-|
|-----------------------------------------------------------------|
|-----------------------------------------------------------------|
|-----------------------------------------------------------------|
|-----------------------------------------------------------------|


|-X-X-4-4-X-X-4-4-X-X-4-4-X-X-4-X-X-X-X-4-X-X-4-4-X-X-4-4-X-X-4-4-|
|-X-X-3-3-X-X-3-3-X-X-3-3-X-X-3-X-X-X-X-3-X-X-3-3-X-X-3-3-X-X-3-3-|
|-----------------------------------------------------------------|
|-----------------------------------------------------------------|
|-----------------------------------------------------------------|
|-----------------------------------------------------------------|


Riff 1

|--------------------------------------------------|
|--------------------------------------------------|
|--------------------------------------------------|
|------------------------7-6-6---------------------|
|------------------------------7--7--7-7-7-7--7----|
|-5-5-5--5--7--8-8-8--8--------------------------0-|
  . . .  .  .  . . .  .  . . . .  .  . . . .  .  .
|--------------------------------------------------|
|--------------------------------------------------|
|--------------------------------------------------|
|------------------------7-6-6---------------------|
|------------------------------7--7----5-5-5--5----|
|-5-5-5--5--7--8-8-8--8--------------0-----------0-|
  . . .  .  .  . . .  .  . . . .  .  . . . .  .  .

Riff 2

Guitar 1
|-5---5---3---3---4---4---4---4---5---5---3---3---4---4---4---3---|
|-5---5---5---5---3---3---3---3---5---5---5---5---3---3---3---2---|
|-5---5---5---5---4---4---4---4---5---5---5---5---4---4---4---3---|
|-----------------------------------------------------------------|
|-----------------------------------------------------------------|
|-----------------------------------------------------------------|


Guitar 2
|-5-5-5-3-3-3---4-4-4-4-4-4-------5-5-5-3-3-3---4-4-4-4-4-4---3---|
|-5-5-5-5-5-5---3-3-3-3-3-3-------5-5-5-5-5-5---3-3-3-3-3-3---2---|
|-5-5-5-5-5-5---4-4-4-4-4-4-------5-5-5-5-5-5---4-4-4-4-4-4---3---|
|-7-7-7-5-5-5---2-2-2-2-2-2-------7-7-7-5-5-5---2-2-2-2-2-2---1---|
|-7-7-7-3-3-3---------------------7-7-7-3-3-3---------------------|
|-5-5-5---------------------------5-5-5---------------------------|


Guitar 1
|-X-X-2--X-2-2--2-2----X-2--1--1-1--|
|-X-X-3--X-3-3--3-3----X-4--3--3-3--|
|-X-X-2--X-2-2--2-2----X-4--3--3-3--|
|-----------------------------------|
|-----------------------------------|
|-----------------------------------|


Guitar 2
|-----2----2-2--2-2------2--1--1-1--|
|-----3----3-3--3-3------4--3--3-3--|
|-----2----2-2--2-2------4--3--3-3--|
|-----4----4-4--4-4------4--3--3-3--|
|------------------------2--1--1-1--|
|-----------------------------------|


Chorus

Guitar 1
|---------------------------------------4-5-4------------|
|----------5-6-5------------------------------6----------|
|-2-4-5----------7---5--4------2-4-5-------------5-/9----|
|--------------------------------------------------------|
|--------------------------------------------------------|
|--------------------------------------------------------|


Guitar 2
|-5--3--3-3---------4--4--4-4---| x2
|-5--5--5-5---------3--3--3-3---|
|-5--5--5-5---------4--4--4-4---|
|-7--5--5-5---------2--2--2-2---|
|-7--3--3-3---------------------|
|-5-----------------------------|


Outro

|-5--3--3-3---------4--4--4-4---| 
|-5--5--5-5---------3--3--3-3---|
|-5--5--5-5---------4--4--4-4---|
|-7--5--5-5---------2--2--2-2---|
|-7--3--3-3---------------------|
|-5-----------------------------|



.=Palm mute
h=Hammer on
p=Pull off
/=Slide up
\=Slide down

            
            
Suggest correction
Creating personal tab
Creating personal tab
You can edit any tab online and save it as your Personal.

You can edit, replace or remove any tab part or add personal notes – all changes will be seen only by you.

Personal tabs can be accessed anytime from any device, even offline.
Learn more »
Give kudos to tab author, rate the tab!
1 2 3 4 5
comments
print report bad tab
guest
You may want to rate the tab now too:
select rating
Wanna post a correction for this tab? Suggest correction