Oops, an error
Loading. Please wait.

Elephant Bones tab

version 1
version 1

Whole song

Interactive

8,333 views 9 this week
6 commentsread comments
1 2 3 4 5
x 7
add to favorites
×
Save as Personal and add changes to this tab that will be seen only by you. Learn more ›
×
You can save this tab as Personal to edit and correct it or add notes. All changes will be seen only by you. Learn more »
launch autoscroll
font size
0
reset
how to read this tab
guitar tuner
backing track
0:00
0:00
edit
Autoscroll
slow
fast
+/-
esc
set tempo
stop
i think for this song your guitar is supposed to be tuned down a half step but i figured 
out in standard tuning
it starts with the little descending thing but u can barely hear it
also you can replace the bar chords with power chords

e|--------------------4--------------4--------------4----------------------|
B|--------------------4--------------4--------------4----------------------|
G|--------------------5--------------5--------------5----5h6p5-------5--4--|
D|--------------------6------4-------6------4-------6----------------------|
A|--------------------6--6-7---7-6-7-6--6-7---7-6-7-6----------------------|
E|--4444333322221111--4--------------4--------------4----------------------|


e|-------------------------------|
B|-------------------------------|
G|-4h5p4-------4-----5----5h6p5--|
D|----------------7--------------| then it goes to the good part
A|-------------------------------|
E|-------------------------------|


e|----------------------------------------|
B|----------------------------------------|
G|----------------------------------------|
D|----------------------------------------| 4 times
A|-------2-4-4br-4-2-4-2-----------2-4-4--|b
E|--4--4-----------------4-----4--4-------|


e|---4--------------4--------------4--------------------------|
B|---4--------------4--------------4--------------------------|
G|---5--------------5--------------5----5h6p5-------5--4------|
D|---6------4-------6------4-------6--------------------------|
A|---6--6-7---7-6-7-6--6-7---7-6-7-6--------------------------|
E|---4--------------4--------------4--------------------------|

e|-------------------------------|
B|-------------------------------|
G|-4h5p4-------4-----5----5h6p5--|
D|----------------7--------------| then it goes to the good part again
A|-------------------------------|
E|-------------------------------|

e|----------------------------------------|
B|----------------------------------------|
G|----------------------------------------|
D|----------------------------------------| 4 times
A|-------2-4-4br-4-2-4-2-----------2-4-4--|b
E|--4--4-----------------4-----4--4-------|

then theres a weird instrumental break that you cant tell whats going on so just play a couple G# chords
then basically the whole song repeats after the break
http://www.myspace.com/thathandsomedevil
peace out

            
            
Suggest correction
Creating personal tab
Creating personal tab
You can edit any tab online and save it as your Personal.

You can edit, replace or remove any tab part or add personal notes – all changes will be seen only by you.

Personal tabs can be accessed anytime from any device, even offline.
Learn more »
comments
print report bad tab
6 comments total. Showing first comments.
0 reply
guitargreg1990 36 Jan 08, 2007 02:30 PM

good tab

0 reply
shtuff 10 Feb 09, 2007 06:39 PM

nice tab dude but that "instrumental break" is the guitar solo....

0 reply
Guitar-Boy-666 10 Apr 15, 2007 10:09 AM

I say the good part is the chorus (the one with the odd setting like what Peter Frampton used in do you feel like we do (or i do) not sure) good tab though !

guest
You may want to rate the tab now too:
select rating
Wanna post a correction for this tab? Suggest correction