Oops, an error
Loading. Please wait.

Elephant Bones bass

version 2
version 2

Whole song

Interactive

742 views 1 this week
no commentswrite comment
1 2 3 4 5
3 more votes to show rating
add to favorites
×
Save as Personal and add changes to this tab that will be seen only by you. Learn more ›
×
You can save this tab as Personal to edit and correct it or add notes. All changes will be seen only by you. Learn more »
launch autoscroll
font size
0
reset
guitar tuner
backing track
0:00
0:00
edit
Autoscroll
slow
fast
+/-
esc
set tempo
stop
Difficulty
Key:

/ = slide

==Elephant Bones (by That Handsome Devil)==

VERSE

(Lord, send down some angels...)
G|--------|
D|--------|
A|11--9--9|
E|-----11-| x8

(Casinos, pornos, stock shows...)
|--------|
|--------|
|10--8--8|
|-----10-| x4

(Bums push carts, crackhead squirrels...)
|--------|
|--------|
|11--9--9|
|-----11-| x4

|----|
|----|
|11/0|
|----|

CHORUS

(Keep dancing, it's the end of the world...)
|----------------------|------------------------|
|----------------------|------------------------|
|------2-4--2-4-5-4-2--|--------2---------------|
|4--4-4--------------4-|-4--4-4---3--3-3--3-3--3| x4

VERSE

(And they send down some astronauts...)
G|------|
D|6--4-4|
A|----6-|
E|------| x8

(Carbon dating beer cans, condoms...)
|------|
|5--3-3|
|----5-|
|------| x4

(We were something beautiful, baby...)
|------|
|6--4-4|
|----6-|
|------| x4

|----|
|----|
|11/0|
|----|

CHORUS

(Keep dancing, it's the end of the world...)
|----------------------|-----------------------|
|----------------------|-----------------------|
|------2-4--2-4-5-4-2--|-------2---------------|
|4--4-4--------------4-|-4--4-4--3--3-3--3-3--3| x4

GUITAR SOLO

|----------------------------|-----------------------------|
|----------------------------|-----------------------------|
|---------2-2-4-4-2-4-5-4-2--|----------2------------------|
|4-4-4-4-4-----------------4-|-4-4-4-4-4--3-3-3-3-3-3-3-3-3| x6

VERSE

(If you were worth it, they'd...)
G|------|
D|6--4-4|
A|----6-|
E|------| x8

(I wanna be in a museum, stuffed...)
|------|
|5--3-3|
|----5-|
|------| x4

(...or buying something. Way too busy...)
|------|
|6--4-4|
|----6-|
|------| x4

|----|
|----|
|11/0|
|----|

CHORUS

(Keep dancing, it's the end of the world...)
|----------------------|-----------------------|
|----------------------|-----------------------|
|------2-4--2-4-5-4-2--|-------2---------------|
|4--4-4--------------4-|-4--4-4--3--3-3--3-3--3| x4

ENDING

(I want my bones kept next to someone of cultural significance...)
|----------------------------|-----------------------------|
|----------------------------|-----------------------------|
|---------2-2-4-4-2-4-5-4-2--|----------2------------------|
|4-4-4-4-4-----------------4-|-4-4-4-4-4--3-3-3-3-3-3-3-3-3| x4

(Heh heh heh...)

Notes:

The verses I had originally tabbed as -

|------|
|6--4-4|
|----6-|
|------| x8

|------|
|5--3-3|
|----5-|
|------| x4

|------|
|6--4-4|
|----6-|
|------| x4

- but I realized there was a slide from what had to be 11 on the A string to 0, so I 
it... you can use the original verse tabs if it's easier for you, but I personally find it 
to jump from that last 4 all the way to the 11/0 slide. Whatever works for you.

Enjoy!

            
            
Suggest correction
Creating personal tab
Creating personal tab
You can edit any tab online and save it as your Personal.

You can edit, replace or remove any tab part or add personal notes – all changes will be seen only by you.

Personal tabs can be accessed anytime from any device, even offline.
Learn more »
Give kudos to tab author, rate the tab!
1 2 3 4 5
comments
print report bad tab
guest
Wanna post a correction for this tab? Suggest correction