Oops, an error
Loading. Please wait.

Elephant Bones tab

version 2
version 2

Whole song

Interactive

5,612 views 3 this week
3 commentsread comments
1 2 3 4 5
x 12
add to favorites
×
Save as Personal and add changes to this tab that will be seen only by you. Learn more ›
×
You can save this tab as Personal to edit and correct it or add notes. All changes will be seen only by you. Learn more »
launch autoscroll
font size
0
reset
how to read this tab
guitar tuner
backing track
0:00
0:00
edit
Autoscroll
slow
fast
+/-
esc
set tempo
stop
Difficulty
Hey guys this is my interpretation on Elephant Bones. I know it's not 100% correct but 
sounds really good to me! Plus it's impossible not to master this song!


e|-------------------------------------------------------------------------|
B|-------------------------------------------------------------------------|
G|-------------------------------------------------------5-6-5~------5--4~-|
D|---------------------------4----------------4----------------------------|
A|--------------------6~-6-7---7-6-7-6~---6-7---7-6-7-6~-------------------|
E|--4444333322221111-------------------------------------------------------|


e|-------------------------------|
B|-------------------------------|
G|-4-5-4~------4~----5~---5-6-5~~|
D|----------------7~-------------| Then it goes to the awesome chorus!
A|-------------------------------|
E|-------------------------------|


e|----------------------------------------|
B|----------------------------------------|
G|----------------------------------------|
D|----------------------------------------| Play this 4 times
A|-------2-4-24542--------2-4~------------|
E|--4--44----------424--44----------------|


e|------------------------------------------------------|
B|------------------------------------------------------|
G|------------------------------------5-6-5~------5--4~-|
D|--------4----------------4----------------------------|
A|-6~-6-7---7-6-7-6~---6-7---7-6-7-6~-------------------|
E|------------------------------------------------------|

e|-------------------------------|
B|-------------------------------|
G|-4-5-4~------4~----5~---5-6-5~~|
D|----------------7~-------------| Then back to the chorus.
A|-------------------------------|
E|-------------------------------|

e|----------------------------------------|
B|----------------------------------------|
G|----------------------------------------|
D|----------------------------------------| Play this 4 times again
A|-------2-4-24542--------2-4~------------|
E|--4--44----------424--44----------------|


Okay I haven't finished it, I know there's a solo, sort of... But yeah anyways it ends 
this:

e|----------------------|
B|----------------------|
G|----------------------|
D|----------------------|
A|----------------------|
E|--4444333322221111----|

Hope y'all enjoy playing this song! It's not very "shredding" type, but it's fun and 
to play!

            
            
Suggest correction
Creating personal tab
Creating personal tab
You can edit any tab online and save it as your Personal.

You can edit, replace or remove any tab part or add personal notes – all changes will be seen only by you.

Personal tabs can be accessed anytime from any device, even offline.
Learn more »
comments
print report bad tab
3 comments total.
0 reply
strumma 10 Jun 18, 2007 01:07 PM

Good tab over all but the solo is just as good as the chorus and it would be nice to see it but still good tab 4*

0 reply
Metallica_Man55 392 Jul 31, 2007 11:47 AM

easier than version 1. i give you 4 stars

0 reply
Chickenfrmheck 115 Mar 06, 2008 06:29 PM

vey nice, vey nice, how moch?
(4 star)

guest
Wanna post a correction for this tab? Suggest correction