Oops, an error
Loading. Please wait.

Elephant Bones tab

version 3
version 3

Whole song

Interactive

857 views 1 this week
6 commentsread comments
1 2 3 4 5
1 last vote to show rating
add to favorites
×
Save as Personal and add changes to this tab that will be seen only by you. Learn more ›
×
You can save this tab as Personal to edit and correct it or add notes. All changes will be seen only by you. Learn more »
launch autoscroll
font size
0
reset
how to read this tab
guitar tuner
backing track
0:00
0:00
edit
Autoscroll
slow
fast
+/-
esc
set tempo
stop
Author
Difficulty
Artist: That Handsome Devil *       *Note: I figured it out in standard * 
Song: Elephant Bones        *       *tuning, but it can be a whole step *
Tabbed By: Brandon C.       *       *or a half step down.               *
Email: CFlyboy14@aol.com    *       *************************************
*****************************        
Intro:                 
e|------------------|
B|------------------|
G|------------------|
D|------------------|
A|------------------|
E|-4444333322221111-|

Verse 1:
e|----------------------------------------6----------6------6--|
B|----------------------------------------6----------6------6--|
G|-7--------------7----------------7--5-6-5~---5~-4~-5--5-6-5--|
D|-7------4-------7--------4-------7---------------------------|
A|-6~-6-7---7-6---6~---6-7---7-6---6~--------------------------|
E|-------------------------------------------------------------|

Chorous:
e|-------------------------------|
B|-------------------------------| (x2)
G|-4-5-4~-4~----5~---5-6-5~~-----|
D|----------------7~-------------| 
A|-------------------------------|
E|-------------------------------|

e|-4-5-4~-4~----5~---5-6-5~~-----| (x2)
B|----------------7~-------------| 
G|-------------------------------|
D|-------------------------------|
A|-------------------------------|
E|-------------------------------|

INTRO AGAIN
THEN CHOROUS

Guitar Solo A:
e|-------------------------------------------------|
B|---------------------------5~~--8-7-6-5-4--------|
G|--------------------6-3-5-3---6------------------|
D|------------5-6-7-8------------------------------|
A|------3-4-5--------------------------------------|
E|3-4-5--------------------------------------------|

e|---8-7-6-------------99-9---99-9---99-9---99-9---99-9---99-9-99-9-9|
B|---------7-7-6-7-7-8------8------8------8------8------8------------|
G|-------------------------------------------------------------------|
D|-------------------------------------------------------------------|
A|-------------------------------------------------------------------|
E|-------------------------------------------------------------------|

e|10-10-10-10-------8-7---------------|
B|------------9-8-7-----6-5---5---6-5-|
G|--------------------------3-5-3-6-5-|
D|------------------------------------|
A|------------------------------------|
E|------------------------------------|

Guitar Solo B: (first four chords are whole notes in length)
e|-4-5-6-7-|---8-8-8-----|---8-8-8-----|---8-8-8-----|---8-8-8-------|
B|-3-4-5-6-|-6---7---7---|-6--7-7--7---|-6--7-7--7---|-6--7-7--7-----|
G|---------|-----------6-|-----------6-|-----------6-|-----------6---|
D|---------|-------------|-------------|-------------|---------------|
A|---------|-------------|-------------|-------------|---------------|
E|---------|-------------|-------------|-------------|---------------|

e|-----------------|
B|-----7-----------|
G|-7-6---8-8-8-8-7-|
D|-----------------|
A|-----------------|
E|-----------------|

Guitar Solo C:(All parts same speed)
      (x4)          (x2)
e|-11-11-987-|-12-12-11-10-9-|-11-11-987-|-12-12-987-|
B|-----------|---------------|-----------|-----------|
G|-----------|---------------|-----------|-----------|
D|-----------|---------------|-----------|-----------|
A|-----------|---------------|-----------|-----------|
E|-----------|---------------|-----------|-----------|

(Next part goes to tune of the end of the chorous, just really really high pitched)
e|12-12----14-14-13-14-15-14-13-12-11-12-12-13-12--------------------|
B|------13-----------------------------------------11~11-11-11~11-11~|
G|-------------------------------------------------------------------|
D|-------------------------------------------------------------------|
A|-------------------------------------------------------------------|
E|-------------------------------------------------------------------|

Play Verse
Then Chorous

End
(x2)
e|--------|--------|--------|--------|
B|--------|--------|--------|--------|
G|--------|--------|--------|--------|
D|--------|--------|--------|--------|
A|-----113|313431--|-----1--|--------|
E|33333---|------3-|33333--1|11111111|

Then Second Part Of Chorous
Then Intro 

End: (Play Lightly)
e|--3~~~~~~~~~|
B|--3~~~~~~~~~|
G|--5~~~~~~~~~|
D|------------|
A|------------|
E|------------|

            
            
Suggest correction
Creating personal tab
Creating personal tab
You can edit any tab online and save it as your Personal.

You can edit, replace or remove any tab part or add personal notes – all changes will be seen only by you.

Personal tabs can be accessed anytime from any device, even offline.
Learn more »
Give kudos to tab author, rate the tab!
1 2 3 4 5
comments
print report bad tab
6 comments total. Showing first comments.
0 reply
ratzgame 134 Jul 11, 2007 05:02 PM

Lol, Solo A, Solo B, Solo C... you were tabbing this while looking at Guitar Hero II's practice mode? They just split the solo up into letters to practice piece by piece, they aren't actually three different solos... But good job, I like this tab more than the others so far.

0 reply
BassPlayerBoy 52 Jul 11, 2007 08:56 PM

Yea i kno, it made it so much more easy for me to tab out, lol and thanks, but yea most of my own stuff is broken up like that for simplicity's sake. Thanks again!

0 reply
Metallica_Man55 392 Jul 31, 2007 11:48 AM

too hard! 3 stars

guest
You may want to rate the tab now too:
select rating
Wanna post a correction for this tab? Suggest correction