Oops, an error
Loading. Please wait.

Elephant Bones Tab

version 4
version 4

Whole song

Interactive

1,006 views 1 this week
11 commentsread comments
1 2 3 4 5
x 4
add to favorites
launch autoscroll
font size
0
reset
how to read this tab
guitar tuner
×
Best way to learn
"Elephant Bones"
Autoscroll
slow
fast
+/-
esc
set tempo
stop
Alright, so this is the whole song with the solo. I couldn't find any versions with both 
It's my first tab so it might not be perfect, but it's close. Enjoy!

Intro:
e|------------------|
B|------------------|
G|------------------|
D|------------------|
A|------------------|
E|-4444333322221111-|

Verse 1:
e|---------------------------------------------------|
B|---------------------------------------------------|
G|---------------------------------------------------|
D|--------4-----------------4------------------------|
A|-6~-6-7---7-6-7-6~----6-7---7-6-7-6~---------------|
E|---------------------------------------------------|

e|---------------------------------------------------|
B|---------------------------------------------------|
G|-5-6-5~---------5---4------------------------------|
D|---------------------------------------------------|
A|---------------------------------------------------|
E|---------------------------------------------------|

e|---------------------------------------------------|
B|---------------------------------------------------|
G|-4-5-4~--------4-------5--------5-6-5--------------|
D|-------------------7-------------------------------|
A|---------------------------------------------------|
E|---------------------------------------------------|

Chorus:
e|---------------------------------------------------|
B|---------------------------------------------------|
G|---------------------------------------------------|
D|---------------------------------------------------|
A|-------2-4--24542------------2-4--(X2)-------------|
E|-4--44------------4-2-4---44-----------------------|

e|-------2-4--24542------------2-4--(X2)-------------|
B|-4--44------------4-2-4---44-----------------------|
G|---------------------------------------------------|
D|---------------------------------------------------|
A|---------------------------------------------------| Do the intro the
E|----------------------------------4444333322221111-| last time through

Verse 1 again
Then Chorus

Solo:
e|---------------------------------------------------|
B|----------------------------5~---8-7-6-5-4---------|
G|---------------------6-3-5-3---6-------------------|
D|-------------5-6-7-8-------------------------------|
A|-------3-4-5---------------------------------------|
E|-3-4-5---------------------------------------------|

e|-8-7-6-------------99-9--99-9--99-9--99-9--99-9--99-9-99-9-|
B|-------7-7-6-7-7-8-----8-----8-----8-----8-----8-----------|
G|-----------------------------------------------------------|
D|-----------------------------------------------------------|
A|-----------------------------------------------------------|
E|-----------------------------------------------------------|

e|-10-10-10-10-------8-7-----------------------------|
B|-------------9-8-7-----6-5---5---6-5---------------|
G|---------------------------3---3-------------------|
D|---------------------------------------------------|
A|---------------------------------------------------|
E|---------------------------------------------------|

Whole Notes|
e|-4-5-6-7-|----8-8-8-------8-8-8------8-8-8------8-8-8--------------------|
B|---------|--6----7-7---6---7-7-7---6--7-7-7---6--7-7-7-------7-----------|
G|---------|-----------6----------6----------6----------6--7-6---8-8-8-8-7-|
D|---------|---------------------------------------------------------------|
A|---------|---------------------------------------------------------------|
E|---------|---------------------------------------------------------------|

e|-11-11--987-(X4)--12-12-11109-(X2)--13-13-121110--14-14-131211-|
B|---------------------------------------------------------------|
G|---------------------------------------------------------------|
D|---------------------------------------------------------------|
A|---------------------------------------------------------------|
E|---------------------------------------------------------------|

e|-14-14----16-16-15-16-17-16-15-14-13-14-14-15-14---------------|
B|-------15----------------------------------------11-11---11-11-|
G|---------------------------------------------------------------|
D|---------------------------------------------------------------|
A|---------------------------------------------------------------|
E|---------------------------------------------------------------|

Verse
Then Chorus

Outro
e|------------------------------|
B|------------------------------|
G|------------------------------|
D|------------------------------|
A|------------------------------|
E|-4444333322221111-------------|

So yeah, the solo might not be perfect, but there's so much going on who could really 
it perfect? Have fun. Peace!
Suggest correction
comments
print report bad tab
11 comments total. Showing first comments.
0 reply
Metallica_Man55 392 Jul 31, 2007 11:49 AM

lol you copied most of this off of the last guy's tab.

0 reply
Metallica_Man55 392 Jul 31, 2007 11:50 AM

i give u 3 for trying

0 reply
Metallica_Man55 392 Aug 06, 2007 07:12 AM

nah i change to 4

guest
You may want to rate the tab now too:
select rating
Wanna post a correction for this tab? Suggest correction