Oops, an error
Loading. Please wait.

Heartbeat Mosaic tab

263 views 1 this week
no commentswrite comment
1 2 3 4 5
3 more votes to show rating
add to favorites
×
Save as Personal and add changes to this tab that will be seen only by you. Learn more ›
×
You can save this tab as Personal to edit and correct it or add notes. All changes will be seen only by you. Learn more »
launch autoscroll
font size
0
reset
how to read this tab
guitar tuner
edit
Autoscroll
slow
fast
+/-
esc
set tempo
stop
Author
That Petrol Emotion
Album : Fireproof (1993)
Song : Heartbeat mosaic

different links to this great group:
http://www.rollingstone.com/artists/thatpetrolemotion
http://en.wikipedia.org/wiki/That_Petrol_Emotion

cliolaurent@yahoo.fr

Tuning = normal
 
Beautiful song, this version sounds OK, it is also possible to play hammer on for the chorus as 
indicated at the end.
 
Tremolo

E----------------------------------------------|
B-------2------3----------------2-------3------|
G---------0----2-------------------0----2------| 
D-----2-----4-------4--------2--------4--------| repeat
A---0---------------------0------------------4-|
D----------------------------------------------|

Clean

E---6---2---6---2----3-----------------------|
B---5---2---5---2----3-----------------------|
G---6---4---6---4----5-----------------------| Repeat
D---6---4---6---4----5-----------------------|
A---4---2---4---2----3-----------------------|
D--------------------------------------------|
Play several times each one

end

E-------------------|
B------3------------|
G-----3-------------|
D----3--------------|
A---0---------------|
D-------------------|

Chorus version 2
E----------------------------|
B-------2--------------------|
G---------0-------4----------| 
D-----2-----4h7---7----------|
A---0-----------------4------|
D----------------------------|

            
            
Suggest correction
Creating personal tab
Creating personal tab
You can edit any tab online and save it as your Personal.

You can edit, replace or remove any tab part or add personal notes – all changes will be seen only by you.

Personal tabs can be accessed anytime from any device, even offline.
Learn more »
Give kudos to tab author, rate the tab!
1 2 3 4 5
comments
print report bad tab
guest
You may want to rate the tab now too:
select rating
Wanna post a correction for this tab? Suggest correction