Oops, an error
Loading. Please wait.

Au Bord De La Mer tab

617 views 6 this week
no commentswrite comment
1 2 3 4 5
1 last vote to show rating
add to favorites
×
Save as Personal and add changes to this tab that will be seen only by you. Learn more ›
×
You can save this tab as Personal to edit and correct it or add notes. All changes will be seen only by you. Learn more »
launch autoscroll
font size
0
reset
how to read this tab
guitar tuner
edit
Autoscroll
slow
fast
+/-
esc
set tempo
stop
The 1975 / Drive Like I Do - Au Bord De La Mer

This song has at least two, possibly even three or four guitars, but I've only tabbed out two of them.
The chords can be found at http://tabs.ultimate-guitar.com/t/the_1975/au_bord_de_la_mer_crd.htm

----------------------------------------------------------------------------------------------------------------

Intro:

Both guitars:

0:04
e|---------------------------------------------------------------|
B|--12#-10#-9#-7#-12#-10#-9#-7#----------------------------------|
G|---------------------------------------------------------------|
D|---------------------------------------------------------------|
A|---------------------------------------------------------------|
E|---------------------------------------------------------------|

----------------------------------------------------------------------------------------------------------------

Verse:

I'm fairly certain that there is a guitar playing while Matty sings, but I can't make out what it plays.
I usually just play one note at the end of each line, like this:

Guitar 1:

0:23 and 0:38
e|---------------------------------------------------------------|
B|---------------------------------------------------------------|
G|--11~----------------------------------------------------------|
D|---------------------------------------------------------------|
A|---------------------------------------------------------------|
E|---------------------------------------------------------------|

0:30 and 0:45
e|---------------------------------------------------------------|
B|---------------------------------------------------------------|
G|--9~-----------------------------------------------------------|
D|---------------------------------------------------------------|
A|---------------------------------------------------------------|
E|---------------------------------------------------------------|

Guitar 2 plays the chords E (779997) and Asus2 (x0220x). Don't strum, just let the chords ring.
Asus2 is optional, as it's not in the recording, but it sounds decent if you include it.

----------------------------------------------------------------------------------------------------------------

Chorus: 

Guitar 1:

0:49
e|-----------------------------------------------------------------------|
B|-----------------------------17-17-17-16-16-16-16----------------------|
G|--11-11-11-16-16-16-14-14-14-------------------------------------------|
D|-----------------------------------------------------------------------|
A|-----------------------------------------------------------------------|
E|-----------------------------------------------------------------------|

Guitar 2 plays C#m - Asus2 - E - Asus2. Check the chord page I linked for timing and stuff.  

Repeat four times.

----------------------------------------------------------------------------------------------------------------

Verse: 

Can't make out what's being played here either, so I just throw in some fitting notes here and there.
You can play something along the lines of this:

Guitar 1:

1:04 and 1:19
e|---------------------------------------------------------------|
B|---------------------------------------------------------------|
G|--16~-14~-13~-11~----------------------------------------------|
D|---------------------------------------------------------------|
A|---------------------------------------------------------------|
E|---------------------------------------------------------------|

1:11 and 1:27
e|---------------------------------------------------------------|
B|---------------------------------------------------------------|
G|--14~-13~-11~-9~-----------------------------------------------|
D|---------------------------------------------------------------|
A|---------------------------------------------------------------|
E|---------------------------------------------------------------|

Guitar 2 strums E and Asus2 lightly all through the verse. 

----------------------------------------------------------------------------------------------------------------

Chorus: 

1:34

Guitar 1:
e|-----------------------------------------------------------------------|
B|-----------------------------17-17-17-16-16-16-16----------------------|
G|--11-11-11-16-16-16-14-14-14-------------------------------------------|
D|-----------------------------------------------------------------------|
A|-----------------------------------------------------------------------|
E|-----------------------------------------------------------------------|

Guitar 2 plays C#m - Asus2 - E - Asus2, just as in chorus 1.  

Repeat four times.

----------------------------------------------------------------------------------------------------------------

Bridge part 1:

1:49

Guitar 1:
e|----------------------------------------------------------------------------------|
B|----------------------------------------------------------------------------------|
G|--(11)-(11)-(11)-16-16-16-14-14-14-13-13-13-13-13-13-13-13------------------------|
D|----------------------------------------------------------------------------------|
A|----------------------------------------------------------------------------------|
E|----------------------------------------------------------------------------------|

e|----------------------------------------------------------------------------------|
B|----------------------------------------------------------------------------------|
G|--(11)-(11)-(11)-16-16-16-14-14-14-13-13-13-13-13-13-13-13------------------------|
D|----------------------------------------------------------------------------------|
A|----------------------------------------------------------------------------------|
E|----------------------------------------------------------------------------------|

e|----------------------------------------------------------------------------------|
B|----------------------------------------------------------------------------------|
G|-----------------------------17-17-17-16-16-16-16---------------------------------|
D|--11-11-11-16-16-16-14-14-14------------------------------------------------------|
A|----------------------------------------------------------------------------------|
E|----------------------------------------------------------------------------------|

e|----------------------------------------------------------------------------------|
B|----------------------------------------------------------------------------------|
G|-----------------------------17-17-17-16-16-16-16---------------------------------|
D|--11-11-11-16-16-16-14-14-14------------------------------------------------------|
A|----------------------------------------------------------------------------------|
E|----------------------------------------------------------------------------------|

Guitar 2 plays the chorus chords again. 

----------------------------------------------------------------------------------------------------------------

Bridge part 2:

2:04

Guitar 1:
e|-------------------------------------------------------------------------------|
B|-------------------------------------------------------------------------------|
G|--11-11-11-9-9-9-16-16-16-13-13-13-13-13-13-13---------------------------------|
D|-------------------------------------------------------------------------------|
A|-------------------------------------------------------------------------------|
E|-------------------------------------------------------------------------------|

Repeat 8 times.

Guitar 2 comes in with the chorus chords on the 5th repetition.

----------------------------------------------------------------------------------------------------------------

Bridge part 3:

2:34

Guitar 1:
e|---------------------------------------------------------------|
B|---------------------------------------------------------------|
G|--9(x16)--s11(x16)--s13(x16)--s16(x16)-------------------------|
D|---------------------------------------------------------------|
A|---------------------------------------------------------------|
E|---------------------------------------------------------------|

Guitar 2:
e|--12#-14#-16#-17#-19#------------------------------------------|
B|---------------------------------------------------------------|
G|---------------------------------------------------------------|
D|---------------------------------------------------------------|
A|---------------------------------------------------------------|
E|---------------------------------------------------------------|

----------------------------------------------------------------------------------------------------------------

Bridge part 4:

2:49

Guitar 1:
e|---------------------------------------------------------------|
B|---------------------------------------------------------------|
G|--16-16-16-14-14-14-13-13-13-14-14-14-13-13-14-14--------------|
D|---------------------------------------------------------------|
A|---------------------------------------------------------------|
E|---------------------------------------------------------------|

e|---------------------------------------------------------------|
B|---------------------------------------------------------------|
G|--16-16-16-14-14-14-13-13-13-14-14-14-13-13-14-14--------------|
D|---------------------------------------------------------------|
A|---------------------------------------------------------------|
E|---------------------------------------------------------------|

e|---------------------------------------------------------------|
B|---------------------------------------------------------------|
G|--16-16-16-14-14-14-13-13-13-14-14-14-13-13-14-14--20(x12)-----|
D|---------------------------------------------------------------|
A|---------------------------------------------------------------|
E|---------------------------------------------------------------|

Unfortunately I can't make out what guitar 2 tremolo picks here, so If anyone knows, feel free to add it.

----------------------------------------------------------------------------------------------------------------

Outro: 

3:04

Guitar 1:
e|---------------------------------------------------------------|
B|---------------------------------------------------------------|
G|--16-16-16-14-14s13-13-11-11-11-9-11-9-------------------------|
D|---------------------------------------------------------------|
A|---------------------------------------------------------------|
E|---------------------------------------------------------------|

Repeat 8 times, and finish with:

e|---------------------------------------------------------------|
B|---------------------------------------------------------------|
G|--16-16-16-14-14s13-13-----------------------------------------|
D|---------------------------------------------------------------|
A|---------------------------------------------------------------|
E|---------------------------------------------------------------|

No idea what guitar 2 does here either, sorry.

----------------------------------------------------------------------------------------------------------------

And that's the basics for this song. Sorry if it's really incomplete and sloppy, but it's all I could make out.
It'd be great if someone who's better at tabbing out songs could finish this.
Enjoy anyway!

            
            
Suggest correction
Creating personal tab
Creating personal tab
You can edit any tab online and save it as your Personal.

You can edit, replace or remove any tab part or add personal notes – all changes will be seen only by you.

Personal tabs can be accessed anytime from any device, even offline.
Learn more »
Give kudos to tab author, rate the tab!
1 2 3 4 5
comments
print report bad tab
guest
You may want to rate the tab now too:
select rating
Wanna post a correction for this tab? Suggest correction