Oops, an error
Loading. Please wait.

Chocolate Tab

version 2
version 2

Whole song

Interactive

32,327 views 9 this week
no commentswrite comment
1 2 3 4 5
x 7
add to favorites
launch autoscroll
font size
0
reset
how to read this tab
guitar tuner
×
Best way to learn
"Chocolate"
Autoscroll
slow
fast
+/-
esc
set tempo
stop
Difficulty
novice
[Intro]
(Guitar 1)
e|---------------------------------------------------------------------------|
B|---------------------------------------------------------------------------|
G|---------------------------------------------------------------------------|
D|--------14-14-13-13-11-11-------11-11-11-13----11-11-11-13----11-11-11-13--| (x3)
A|--14-14-------------------14-14--------------------------------------------|
E|---------------------------------------------------------------------------|

e|---------------------------------------------------------------------------|
B|---------------------------------------------------------------------------|
G|---------------------------------------------------------------------------|
D|--------14-14-13-13-11-11-------11-11-11-13----11-11-11-11--11-11-11-------|
A|--14-14-------------------14-14--------------------------------------14-14-|
E|---------------------------------------------------------------------------|
                                                
(Guitar 2)
(Guitar 2 plays this 8 times for every one bar above)
e|---------------------|
B|--14-14-14-14----16--|
G|--------------16-----|(x32)
D|---------------------|
A|---------------------|
E|---------------------|
(This section is all palm muted)

[Verse 1]
e|---------------------|
B|--14-14-14-14----16--|
G|--------------16-----|(x32)
D|---------------------|
A|---------------------|
E|---------------------|

[Verse 2]
(Guitar 1)
e|---------------------|
B|---------------------|
G|---------------------|
D|--11-11-11-11-11h13--|
A|---------------------|
E|---------------------|

e|---------------------|
B|--14-14-14-14----16--|
G|--------------16-----|(x32)
D|---------------------|
A|---------------------|
E|---------------------|

[Chorus]
(Guitar 1)
e|---------------------------------------------------------------------------|
B|---------------------------------------------------------------------------|
G|---------------------------------------------------------------------------|
D|--------14-14-13-13-11-11-------11-11-11-13----11-11-11-13----11-11-11-13--| (x3)
A|--14-14-------------------14-14--------------------------------------------|
E|---------------------------------------------------------------------------|

e|---------------------------------------------------------------------------|
B|---------------------------------------------------------------------------|
G|---------------------------------------------------------------------------|
D|--------14-14-13-13-11-11-------11-11-11-13----11-11-11-11--11-11-11-------|
A|--14-14-------------------14-14--------------------------------------14-14-|
E|---------------------------------------------------------------------------|

[Pre-chorus]
(Guitar 1)
e|---------------------------------------------|
B|---------------------------------------------|
G|---------------------------------------------|
D|--------14-14-13-13-11-11-------11-11-11-13--| (x3)
A|--------------------------14-14--------------|
E|---------------------------------------------|

e|---------------|
B|---------------|
G|---------------|
D|--11-11-11-13--| (x6)
A|---------------|
E|---------------|

e|---------------------------------------------------------------------------|
B|---------------------------------------------------------------------------|
G|---------------------------------------------------------------------------|
D|--------14-14-13-13-11-11-------11-11-11-13----11-11-11-11--11-11-11-------|
A|--14-14-------------------14-14--------------------------------------14-14-|
E|---------------------------------------------------------------------------|

(Guitar 2)
e|---------------------|
B|--14-14-14-14----16--|
G|--------------16-----|
D|---------------------|
A|---------------------|
E|---------------------|

[Bridge]
(Guitar 2)
e|-------------------------|
B|--------16-14------14----|
G|--16-16-------16------16-|(x8)
D|-------------------------|
A|-------------------------|
E|-------------------------|
(This section is all palm muted)


************************************

| h  Hammer-on

************************************
Suggest correction
comments
print report bad tab
guest
You may want to rate the tab now too:
select rating
Wanna post a correction for this tab? Suggest correction