Oops, an error
Loading. Please wait.

Headcarsbending Live tab

version 1
version 1

Whole song

757 views 3 this week
2 commentsread comments
1 2 3 4 5
1 last vote to show rating
add to favorites
×
Save as Personal and add changes to this tab that will be seen only by you. Learn more ›
×
You can save this tab as Personal to edit and correct it or add notes. All changes will be seen only by you. Learn more »
launch autoscroll
font size
0
reset
how to read this tab
guitar tuner
edit
Autoscroll
slow
fast
+/-
esc
set tempo
stop
Author
Difficulty
Head.Cars.Bending Live
tabbed by: beachfossils
Tuning: Standard EADGBe

Live at Itunes Festival - https://www.youtube.com/watch?v=CfzIUp4LyW4
Tab replicates the lead.

Sliding's hard to replicate in tab form as it's almost entirely sliding back and forth up
the fretboard.
Hopefully it's easy enough to understand upon listening.

Intro/Chorus:

E|-----------------------------|
B|-----------------------------|
G|--12--9--7/9--7/9--7\5--2/5--|
D|-----------------------------|
A|-----------------------------|
E|-----------------------------|

E|---------------------------------|
B|---------------------------------|
G|--12--9--7/9--7/9--7\5--5/12--9--|
D|---------------------------------|
A|---------------------------------|
E|---------------------------------|

E|-----------------------------|
B|-----------------------------|
G|--12--9--7/9--7/9--7\5--2/5--|
D|-----------------------------|
A|-----------------------------|
E|-----------------------------|

E|----------------------|
B|----------------------|
G|--12--9--7/9--7/9--7--|
D|----------------------|
A|----------------------|
E|----------------------|

Outro:

E|------------------------------------|
B|------------------------------------|
G|--12-(x12)--10-(x4)--9-(x6)--7(x4)--|
D|------------------------------------|
A|------------------------------------|
E|------------------------------------|

************************************

| /   slide up
| \   slide down

************************************

            
            
Suggest correction
Creating personal tab
Creating personal tab
You can edit any tab online and save it as your Personal.

You can edit, replace or remove any tab part or add personal notes – all changes will be seen only by you.

Personal tabs can be accessed anytime from any device, even offline.
Learn more »
Give kudos to tab author, rate the tab!
1 2 3 4 5
comments
print report bad tab
2 comments total.
0 reply
christianlowe 10 Dec 25, 2016 11:13 PM

What's matty playing chord wise?

guest
You may want to rate the tab now too:
select rating
Wanna post a correction for this tab? Suggest correction