Oops, an error
Loading. Please wait.

Love Me tab

version 1
version 1

Whole song

Video

64,828 views 228 this week
7 commentsread comments
1 2 3 4 5
x 43
add to favorites
×
Save as Personal and add changes to this tab that will be seen only by you. Learn more ›
×
You can save this tab as Personal to edit and correct it or add notes. All changes will be seen only by you. Learn more »
launch autoscroll
font size
0
reset
how to read this tab
guitar tuner
edit
Autoscroll
slow
fast
+/-
esc
set tempo
stop
Author
Difficulty
intermediate
-------------------------------------------------------------------------------
                             LOVE ME - The 1975
-------------------------------------------------------------------------------
Tabbed by: Kyle Carbutt
E-mail: kylecarbutt95@gmail.com

Tuning: Standard


[Intro] Funk

E|-----------------------------------------------------------------------|
B|--16-16-16-16--15--16-16-16-16-16-15-----------------------------------|
G|--14-14-14-14--13--14-14-14-14-14-13-----------------------------------|
D|--13-13-13-13--13--13-13-13-13-13-13-----------------------------------|
A|-----------------------------------------------------------------------|
D|-----------------------------------------------------------------------|

 Weird Tremolo Effect (Use pitch shifter)
E|-----------------------------------------------------------------------|
B|----6-----------------6------------------------------------------------|
G|------5-3--3-1-3-5------5-3--1/15/8-10---------------------------------|
D|--3-----------------3--------------------------------------------------|
A|-----------------------------------------------------------------------|
D|-----------------------------------------------------------------------|


[Verse 1] 

(No Guitar)


[Pre-Chorus]

E|-----------------------------------------------------------------------|
B|--16-16-16-16--16-------16-16-16-16--15--16----------------------------|
G|--14-14-14-14-----14----14-14-14-14--13--14----------------------------|
D|--13-13-13-13-----------13-13-13-13--13--13----------------------------|
A|-----------------------------------------------------------------------|
D|-----------------------------------------------------------------------|

E|-----------------------------------------------------------------------|
B|-----------------------------------------------------------------------|
G|-----------------------------------------------------------------------|
D|--3-3-3-3-3-3-3-3-5-5-5-5-5-5-5-5--------------------------------------|
A|--1-1-1-1-1-1-1-1-3-3-3-3-3-3-3-3--------------------------------------|
D|-----------------------------------------------------------------------|

E|-----------------------------------------------------------------------|
B|--16-16-16-16--15--16-16-16-16-16-15-----------------------------------|
G|--14-14-14-14--13--14-14-14-14-14-13-----------------------------------|
D|--13-13-13-13--13--13-13-13-13-13-13-----------------------------------|
A|-----------------------------------------------------------------------|
D|-----------------------------------------------------------------------|


[Chorus] lead

E|-----------------------------------------------------------------------|
B|------------------------9--------------6-----------6-------------------|
G|--13-12-10-7h8-7----7h8---7-5------------------------------------------|
D|-----------------10-----------5-6-5-3----------5h6---------------------|
A|-----------------------------------------------------------------------|
D|-----------------------------------------------------------------------|


[Verse]

E|-----------------------------------------------------------------------|
B|-----------------------------------------------------------------------|
G|-----------------------------------------------------------------------|
D|--3-3-3-3-3-1-x7-3-3-3-3-3-6-------------------------------------------|
A|-----------------------------------------------------------------------|
D|-----------------------------------------------------------------------|

 Throw in a few more of these where needed in verse 2.
E|-----------------------------------------------------------------------|
B|--16-16-16-16--15--16-16-16-16-16-15-----------------------------------|
G|--14-14-14-14--13--14-14-14-14-14-13-----------------------------------|
D|--13-13-13-13--13--13-13-13-13-13-13-----------------------------------|
A|-----------------------------------------------------------------------|
D|-----------------------------------------------------------------------|

 "You look famous lets be friends..." (Lots of fuzz)
E|-----------------------------------------------------------------------|
B|------------------------9-------------16-----------6-------------------|
G|--13-12-10-7h8-7----7h8---7-5------------------------------------------|
D|-----------------10-----------5-6-5-3----------5h6---------------------|
A|-----------------------------------------------------------------------|
D|-----------------------------------------------------------------------|


[Pre-Chorus 2]

E|-----------------------------------------------------------------------|
B|----------------16-------16-16-16-16--15--16---------------------------|
G|--3----------------14----14-14-14-14--13--14---------------------------|
D|--3----------------------13-13-13-13--13--13---------------------------|
A|--1--------------------------------------------------------------------|
D|-----------------------------------------------------------------------|

E|-----------------------------------------------------------------------|
B|-----------------------------------------------------------------------|
G|-----------------------------------------------------------------------|
D|--3-3-3-3-3-3-3-3-5-5-5-5-5-5-5-5--------------------------------------|
A|--1-1-1-1-1-1-1-1-3-3-3-3-3-3-3-3--------------------------------------|
D|-----------------------------------------------------------------------|

E|-----------------------------------------------------------------------|
B|--16-16-16-16--15--16-16-16-16-16-15-----------------------------------|
G|--14-14-14-14--13--14-14-14-14-14-13-----------------------------------|
D|--13-13-13-13--13--13-13-13-13-13-13-----------------------------------|
A|-----------------------------------------------------------------------|
D|-----------------------------------------------------------------------|

Repeat Chorus

[Pre-Solo]

E|-----------------------------------------------------16/---------------|
B|--16-16-16-16----15-16-18-15-16-18-15-16-18-15-16-18-------------------|
G|--14-14-14-14-x4-------------------------------------------------------|
D|--13-13-13-13----------------------------------------------------------|
A|-----------------------------------------------------------------------|
D|-----------------------------------------------------------------------|


[Solo]

E|-----------------------------------------------------------------------|
B|-18/--16-16-16-15-15-15-13-13-13---------------------------------------|
G|---------------------------------15-15-15-13-13-13---------------------|
D|---------------------------------------------------15/-----------------|
A|-----------------------------------------------------------------------|
D|-----------------------------------------------------------------------|

E|-----------------------------------------------------------------------|
B|----------16-15-13-----------------------------------------------------|
G|----13-15----------15-13-12-13-15/-------------------------------------|
D|-15--------------------------------------------------------------------|
A|-----------------------------------------------------------------------|
D|-----------------------------------------------------------------------|

E|-------13--------------------------------------------------------------|
B|-13-------13-------16-------13-------------------13b-13b---------------|
G|----15-------15-13-------15----13--------------------------------------|
D|----------------------------------13-12/-------------------------------|
A|-----------------------------------------------------------------------|
D|-----------------------------------------------------------------------|

E|----------------------------------------------------------------------------|
B|--16----15-----13-----------------------------------------------------------|
G|-----14----13---------------------------------------------------------------|
D|--------------------13/-15--------------------------------------------------|
A|----------------------------------------------------------------------------|
D|----------------------------------------------------------------------------|


************************************
| /   slide up
| \   slide down
| h   hammer-on
| x   Mute note
| b   Bend
************************************

            
            
Suggest correction
Creating personal tab
Creating personal tab
You can edit any tab online and save it as your Personal.

You can edit, replace or remove any tab part or add personal notes – all changes will be seen only by you.

Personal tabs can be accessed anytime from any device, even offline.
Learn more »
comments
print report bad tab
7 comments total. Showing first comments.
0 reply
alecherrr 147 Oct 09, 2015 08:53 AM

great tab!)

0 reply
kiekoes 156 Oct 10, 2015 02:51 AM

This is perfect! Thank you.

0 reply
xAngelsOfHellx 2,152 Nov 10, 2015 07:35 AM

Don't think that note on the 16th fret should be there (on the You look famous... riff). Beyond that this is fantastic, great job dude

guest
You may want to rate the tab now too:
select rating
Wanna post a correction for this tab? Suggest correction