Oops, an error
Loading. Please wait.

Love Me Tab

version 4
version 4

Whole song

112 views 6 this week
no commentswrite comment
1 2 3 4 5
2 more votes to show rating
add to favorites
launch autoscroll
font size
0
reset
how to read this tab
guitar tuner
Autoscroll
slow
fast
+/-
esc
set tempo
stop
Help us to improve Ultimate-Guitar.com Take our survey!
×
Author
Difficulty
intermediate
About this tab version
Different chords compared to other tabs. Was this info helpful? Yes No
Did my best with the solo. Might not be 100% accurate.
[Intro]
e|11-11-11-11-10-----11-11-11-11-11-10-----------------------------------------|
B|10-10-10-10--9-----10-10-10-10-10--9-----------------------------------------|
G|10-10-10-10--9-----10-10-10-10-10--9-----------------------------------------| x20 (approx.)
D|-----------------------------------------------------------------------------|
A|-----------------------------------------------------------------------------|
E|-----------------------------------------------------------------------------|

[Verse] (no guitar)

And there's things we'd like to change
Next thing you'll find you're
e|------------------------------------------------------------------------------|
B|------------------------------------------------------------------------------|
G|------------------------------------------------------------------------------|(palm muted)
D|-----------------------------------------------------------------------------6|
A|-------------------------------------8-8-8-8-8-6--8-8-8-8-6--8-8-8-8-6--8-8-8-|
E|------------------------------------------------------------------------------|

e|11------11------11-x-11-x-11-x-11---------------------------------------------|
B|10----10--10----10-x-10-x-10-x-10---------------------------------------------|
G|----------------10-x-10-x-10-x-10---------------------------------------------|
D|-------------------------------------8-----/-10-------------------------------|
A|-------------------------------------8-(x8)/-10-(x8)--------------------------|
E|-------------------------------------6-----/-8--------------------------------|

[Pre-Chorus]
e|11-11-11-11-10-----11-11-11-11-11-10------------------------------------------|
B|10-10-10-10--9-----10-10-10-10-10--9------------------------------------------|
G|10-10-10-10--9-----10-10-10-10-10--9------------------------------------------| x4 (approx.)
D|------------------------------------------------------------------------------|
A|------------------------------------------------------------------------------|
E|------------------------------------------------------------------------------|


[Chorus]
e|------------------------------------------------------------------------------|
B|------------------------------------------------------------------------------|
G|13-12-10--------------------13-------------------10--------10-----------------|x2
D|---------12/13-12-10---12/13----12-10-----------------------------------------|
A|-------------------------------------10/11-10-8-------10h11-------------------|
E|------------------------------------------------------------------------------|

[Verse]
e|------------------------------------------------------------------------------|
B|------------------------------------------------------------------------------|
G|------------------------------------------------------------------------------| x3(palm muted)
D|-----------------------------------------6------------------------------------|
A|8-8-8-8-8-6--8-8-8-8-6--8-8-8-8-6--8-8-8--------------------------------------|
E|------------------------------------------------------------------------------|

e|11-11-11-11-10-----11-11-11-11-11-10---------11-11-11-11-10-----11-11-11-11-10|
B|10-10-10-10--9-----10-10-10-10-10--9-(x2)----10-10-10-10--9-----10-10-10-10--9|
G|10-10-10-10--9-----10-10-10-10-10--9---------10-10-10-10--9-----10-10-10-10--9| 
D|------------------------------------------------------------------------------|
A|------------------------------------------------------------------------------|
E|------------------------------------------------------------------------------|

e|------------------------------------------------------------------------------|
B|------------------------------------------------------------------------------|
G|13-12-10--------------------13-------------------10---------------------------|
D|---------12/13-12-10---12/13----12-10-----------------------------------------|
A|-------------------------------------10/11-10-8-------------------------------|
E|------------------------------------------------------------------------------|

e|11------11------11-x-11-x-11-x-11---------------------------------------------|
B|10----10--10----10-x-10-x-10-x-10---------------------------------------------|
G|----------------10-x-10-x-10-x-10---------------------------------------------|
D|-------------------------------------8-----/-10-------------------------------|
A|-------------------------------------8-(x8)/-10-(x8)--------------------------|
E|-------------------------------------6-----/-8--------------------------------|

[Pre-Chorus]
e|11-11-11-11-10-----11-11-11-11-11-10------------------------------------------|
B|10-10-10-10--9-----10-10-10-10-10--9------------------------------------------|
G|10-10-10-10--9-----10-10-10-10-10--9------------------------------------------| x4 (approx.)
D|------------------------------------------------------------------------------|
A|------------------------------------------------------------------------------|
E|------------------------------------------------------------------------------|

[Chorus]
e|------------------------------------------------------------------------------|
B|------------------------------------------------------------------------------|
G|13-12-10--------------------13-------------------10--------10-----------------| x2
D|---------12/13-12-10---12/13----12-10-----------------------------------------|
A|-------------------------------------10/11-10-8-------10h11-------------------|
E|------------------------------------------------------------------------------|

[Solo]
e|11-11-10-10-------11----------13------13------13------13-16b------------------|
B|10-10-10-10-(x3)--10-----15h16---15h16---15h16---15h16-------18\--------------|
G|10-10-10-10-------10----------------------------------------------------------|
D|------------------------------------------------------------------------------|
A|------------------------------------------------------------------------------|
E|------------------------------------------------------------------------------|

e|------------------------------------------------------------------------------|
B|16-16-16-15-15-15-13-13-13---------------------------16-15-13-----------------|
G|---------------------------15-15-15-13-----------13-15----------15-13-12-13-15|
D|----------------------------------------15\---15------------------------------|
A|------------------------------------------------------------------------------|
E|------------------------------------------------------------------------------|

e|------13----------------------------------------------------------------------|
B|---13----13-------16----13-------------13b13b--16----15----13-----------------|
G|15----------15-13----15----15-13------------------14----13--------------------|
D|---------------------------------13-12-----------------------13s15------------|
A|------------------------------------------------------------------------------|
E|------------------------------------------------------------------------------|

[Outro]
e|11------11------11-x-11-x-11-x-11---------------------------------------------|
B|10----10--10----10-x-10-x-10-x-10---------------------------------------------|
G|----------------10-x-10-x-10-x-10---------------------------------------------|
D|-------------------------------------8-----/-10-------------------------------|
A|-------------------------------------8-(x8)/-10-(x8)--------------------------|
E|-------------------------------------6-----/-8--------------------------------|

e|------------------------------------------------------------------------------|
B|------------------------------------------------------------------------------|
G|13-12-10--------------------13-------------------10--------10-----------------| x2
D|---------12/13-12-10---12/13----12-10-----------------------------------------|
A|-------------------------------------10/11-10-8-------10h11-------------------|
E|------------------------------------------------------------------------------|

e|11-11-11-11-10-----11-11-11-11-11-10------------------------------------------|
B|10-10-10-10--9-----10-10-10-10-10--9------------------------------------------|
G|10-10-10-10--9-----10-10-10-10-10--9------------------------------------------| until the end of the song
D|------------------------------------------------------------------------------|
A|------------------------------------------------------------------------------|
E|------------------------------------------------------------------------------|


************************************

| x   Dead note
| h   Hammer-on
| b   Bend
| /   Slide up
| \   Slide down
| PM  Palm mute

************************************
Suggest correction
Give kudos to tab author, rate the tab!
1 2 3 4 5
comments
print report bad tab
guest
You may want to rate the tab now too:
select rating
Wanna post a correction for this tab? Suggest correction