Oops, an error
Loading. Please wait.

Menswear Tab

199 views 6 this week
no commentswrite comment
1 2 3 4 5
3 more votes to show rating
add to favorites
launch autoscroll
font size
0
reset
how to read this tab
guitar tuner
Autoscroll
slow
fast
+/-
esc
set tempo
stop
Help us to improve Ultimate-Guitar.com Take our survey!
×
Author
Difficulty
intermediate
Menswear - The 1975

This is a super groovy track off The 1975's debut album. This is only the
lead synth part because they don't seem to play any actual guitar in this one.


[Intro]

e|---------------------------------------------------------------------------|
B|---------------------------------------------------------------------------|
G|---------------------------------------------------------------------------|
D|-13g15-15g16-13--11-13----13g15-13\11--------------------------------------|
A|-----------------------13--------------------------------------------------|
E|---------------------------------------------------------------------------|

e|---------------------------------------------------------------------------|
B|---------------------------------------------------------------------------|
G|---------------------------------------------------------------------------|
D|-13g15-15g16-13--11-13----13g15-13\11--------------------------------------|
A|-----------------------13--------------------------------------------------|
E|---------------------------------------------------------------------------|

e|---------------------------------------------------------------------------|
B|---------------------------------------------------------------------------|
G|-13g15-15---------------------13g15-15-------------------------------------|
D|----------13g15-13-11------------------13g15-13-11-------------------------|
A|---------------------------------------------------------------------------|
E|---------------------------------------------------------------------------|

e|---------------------------------------------------------------------------|
B|---------------------------------------------------------------------------|
G|---------------------------------------------------------------------------|
D|-13g15-15g16-13--11-13----13g15-13\11--------------------------------------|
A|-----------------------13--------------------------------------------------|
E|---------------------------------------------------------------------------|

e|---------------------------------------------------------------------------|
B|---------------------------------------------------------------------------|
G|---------------------------------------------------------------------------|
D|----13-15--15h16-----------------------------------------------------------|
A|-16------------------------------------------------------------------------|
E|---------------------------------------------------------------------------|

[The Rest of the Song]

e|---------------------------------------------------------------------------|
B|---------------------------------------------------------------------------|
G|---------------------------------------------------------------------------|
D|-13g15-15g16-13--11-13----13g15-13\11--------------------------------------| x20
A|-----------------------13--------------------------------------------------|
E|---------------------------------------------------------------------------|


************************************

| g  Grace note
| h  Hammer-on
| \  Slide down

************************************
Suggest correction
Give kudos to tab author, rate the tab!
1 2 3 4 5
comments
print report bad tab
guest
You may want to rate the tab now too:
select rating
Wanna post a correction for this tab? Suggest correction