Oops, an error
Loading. Please wait.

Milk tab

version 3
version 3

Whole song

529 views 3 this week
no commentswrite comment
1 2 3 4 5
3 more votes to show rating
add to favorites
×
Save as Personal and add changes to this tab that will be seen only by you. Learn more ›
×
You can save this tab as Personal to edit and correct it or add notes. All changes will be seen only by you. Learn more »
launch autoscroll
font size
0
reset
how to read this tab
guitar tuner
edit
Autoscroll
slow
fast
+/-
esc
set tempo
stop
About this tab version
Its how THE 1975 plays it. Was this info helpful? Yes No
INTRO(there's no one playing the guitar in that part but i used my ears what note to play)

"Straight lines that unwind you
She does a little thing with her eye that says, "We're off soon."
e|---------8----------------------------------------------------------|
b|---------10---------------------------------------------------------|
g|-10-10--------------------------------------------------------------|   listen how many times
d|--------------------------------------------------------------------|
a|--------------------------------------------------------------------|
E|--------------------------------------------------------------------|


[Verse]

"She says the bleeding's incidental 'cause she's so cool
She says it's no fun if you've only a bottle of wine"

Adam
e|--------------------------------------------------------------------|
b|--------------------------------------------------------------------|
g|--------------------------------------------------------------------|    x2
d|--------------------------------------------------------------------|
a|--------------------------------------------------------------------|
E|-(13)-13-13-13-13-13-13-/-3-3-3-3-3-3-/-6-6-6-6-6-6-/-6-6-6-6-/8-8-8|



[Chorus]

Matty
e|---------------------------------------------------------------|
b|---------------------------------------------------------------|
g|---------------------------------------------------------------|    x2
d|---------------------------------------------------------------|
a|---------------------------------------------------------------|
E|-13-13-13-13-13-13-/-3-3-3-3-3-3-/-6-6-6-6-6-6-/-6-6-6-6/-8-8-8|


Adam

e|---------------------------------------------------------------|
b|---------------------------------------------------------------|
g|-17~--14---14-14-14-14--17-------------------------------------|  x8
d|---------------------------------------------------------------|
a|---------------------------------------------------------------|
E|---------------------------------------------------------------|

Verse Again

Chorus Again

[Outro]

 Adam
e|---------------------------------------------------------------|  
b|---------------------------------------------------------------|  
g|-17~--14---14-14-14-14--17-------------------------------------|  
d|---------------------------------------------------------------|  
a|---------------------------------------------------------------|  
E|---------------------------------------------------------------|  


e|-----------------|
b|--16~----14~-----|
g|-----------------|  listen to the song when this part is being played 
d|-----------------|
a|-----------------|
E|-----------------|

Matty                                                     just listen to the song how many times

e|---------------------------------------------------------------|
b|---------------------------------------------------------------|
g|---------------------------------------------------------------|     
d|---------------------------------------------------------------|
a|---------------------------------------------------------------|
E|-13-13-13-13-13-13-13-13-13-13-13/-1-1-1-/13-13-13-13-13-13-13-13|


******************************************

vibrato = ~
slide = /
silent note = ()

******************************************

            
            
Suggest correction
Creating personal tab
Creating personal tab
You can edit any tab online and save it as your Personal.

You can edit, replace or remove any tab part or add personal notes – all changes will be seen only by you.

Personal tabs can be accessed anytime from any device, even offline.
Learn more »
Give kudos to tab author, rate the tab!
1 2 3 4 5
comments
print report bad tab
guest
You may want to rate the tab now too:
select rating
Wanna post a correction for this tab? Suggest correction