Oops, an error
Loading. Please wait.

Nana tab

version 2
version 2

Whole song

  • This tab is 75% close to the original song. I've s... Show more

Video

3,163 views 108 this week
1 commentread comment
1 2 3 4 5
x 6
add to favorites
×
Save as Personal and add changes to this tab that will be seen only by you. Learn more ›
×
You can save this tab as Personal to edit and correct it or add notes. All changes will be seen only by you. Learn more »
launch autoscroll
font size
0
reset
how to read this tab
guitar tuner
edit
Autoscroll
slow
fast
+/-
esc
set tempo
stop
About this tab version
This tab is 75% close to the original song. I've simplified it so you can play the different guitar parts and the bass all at the same time. Was this info helpful? Yes No
Nana - The 1975
Capo on 5th fret


[Intro]

e|----3-----------3-------------------------------------|---------------3--------------------3------|
B|----------------------------0-------1------1-------1--|---------------0--------------0h1------1---|
G|----2--0--------------------0-------0------0-------0--|---------2----------------0----------------|
D|----------------0--2----------------------------------|------------------------0------------------|
A|-----------3----------------------------0-------------|-----3-------------------------------------|
E|-1----------------------3-------3-------------3-------|--1---------1-----1--3---------------------|

[Verse]

I wish you'd walk in again
Imagine if you just did
I'd fill you in on the things you missed

e|----3-----------3-------------------------------------|---------------3--------------------3------|
B|----------------------------0-------1------1-------1--|---------------0--------------0h1------1---|
G|----2--0--------------------0-------0------0-------0--|---------2----------------0----------------|
D|----------------0--2----------------------------------|------------------------0------------------|
A|-----------3----------------------------0-------------|-----3-------------------------------------|
E|-1----------------------3-------3------------3--------|--1---------1-----1--3---------------------|

Oh sleepless night, a grown up man dressed in white

e|----3-----------3-------------------------------------|
B|----------------------------0-------1------1-------1--|
G|----2--0--------------------0-------0------0-------0--|
D|----------------0--2----------------------------------|
A|-----------3----------------------------0-------------|
E|-1----------------------3-------3-------------3-------|

Who I thought might just save your life
But he couldn't, so you died

e|-----------------------------------------------------|-------------------------------------0----|
B|----1----------1----------1------1-----1-----1-----1-|---------1---------------------1----------|
G|----0-------0-------------0----- 0-----0-----0-----0-|---------0-----------------0------0-------|
D|-----------------------------------------------------|--------------------2/3----------------3--|
A|----------------------3------2------0----------------|---------------3--------------------------|
E|-1----1--3-------3------------------------3-----1----|--1--3------3-----------------------------|

I don't like it, now you're dead
It's not the same when I scratch my own head
I haven't got the nails for it

e|----3-----------3-------------------------------------|---------------3--------------------3------|
B|----------------------------0-------1------1-------1--|---------------0--------------0h1------1---|
G|----2--0--------------------0-------0------0-------0--|---------2----------------0----------------|
D|----------------0--2----------------------------------|------------------------0------------------|
A|-----------3----------------------------0-------------|-----3-------------------------------------|
E|-1----------------------3-------3-------------3-------|--1---------1-----1--3---------------------|

And I know that God doesn't exist
And all of the palaver surrounding it

e|----3-----------3-------------------------------------|
B|----------------------------0-------1------1-------1--|
G|----2--0--------------------0-------0------0-------0--|
D|----------------0--2----------------------------------|
A|-----------3----------------------------0-------------|
E|-1----------------------3-------3-------------3-------|

But I like to think you hear me sometimes

e|-----------------------------------------------------|-------------------------------------0----|
B|----1----------1----------1------1-----1-----1-----1-|---------1---------------------1----------|
G|----0-------0-------------0----- 0-----0-----0-----0-|---------0-----------------0------0-------|
D|-----------------------------------------------------|--------------------2/3----------------3--|
A|----------------------3------2-----------------------|---------------3--------------------------|
E|-1----1--3-------3------------------------3-----1----|--1--3------3-----------------------------|

(I'm not sure about this part but it still works:)

So I reached for a borrowed fleece
From my dad or from Denise

e|---0---|-------|-------|-------|
B|---1---|---1---|---1---|---1---|
G|---0---|---0---|---0---|---0---|
D|---3---|-------|-------|-------|
A|-------|---0---|-------|-------|
E|-------|-------|---3---|---1---|

Always trying to keep warm, when you're the sun

e|-------|-------|-------|
B|---1---|---1---|---1---|
G|---0---|---0---|---0---|
D|-------|-------|-------|
A|-------|-------|-------|
E|---0---|---3---|---1---|


e|-3---3-------|
B|----------1--|     (You can play this
G|-------------|      after the 3rd verse)
D|-------------| 3x
A|-------------|
E|-------------|

I sat with you beside your bed and cried
For things that I wish I'd said
You still had your nails red

e|----3-----------3-------------------------------------|---------------3--------------------3------|
B|----------------------------0-------1------1-------1--|---------------0--------------0h1------1---|
G|----2--0--------------------0-------0------0-------0--|---------2----------------0----------------|
D|----------------0--2----------------------------------|------------------------0------------------|
A|-----------3----------------------------0-------------|-----3-------------------------------------|
E|-1----------------------3-------3-------------3-------|--1---------1-----1--3---------------------|

And if I live past 72, I hope I'm half as cool as you

e|----3-----------3-------------------------------------|---------------3--------------------3------|
B|----------------------------0-------1------1-------1--|---------------0--------------0h1------1---|
G|----2--0--------------------0-------0------0-------0--|---------2----------------0----------------|
D|----------------0--2----------------------------------|------------------------0------------------|
A|-----------3----------------------------0-------------|-----3-------------------------------------|
E|-1----------------------3-------3-------------3-------|--1---------1-----1--3---------------------|

I got my pen and thought that I'd write
A melody and line for you tonight
I think that's how I make things feel alright

e|----3-----------3-------------------------------------|---------------3--------------------3------|
B|----------------------------0-------1------1-------1--|---------------0--------------0h1------1---|
G|----2--0--------------------0-------0------0-------0--|---------2----------------0----------------|
D|----------------0--2----------------------------------|------------------------0------------------|
A|-----------3----------------------------0-------------|-----3-------------------------------------|
E|-1----------------------3-------3-------------3-------|--1---------1-----1--3---------------------|

Made in my room, this simple tune
Will always keep me close to you
the crowds will sing their voices ring 
and it's like you never left

e|----3-----------3-------------------------------------|
B|----------------------------0-------1------1-------1--|
G|----2--0--------------------0-------0------0-------0--|
D|----------------0--2----------------------------------|
A|-----------3----------------------------0-------------|
E|-1----------------------3-------3-------------3-------|

But I'm bereft you see
I think you can tell
I haven't been doing too well
(play the bass notes)
e|---------------------------|----------------------------------|
B|---------------------------|----------------------------------|
G|---------------------------|----------------------------------|
D|---------------------------|----------------------------------|
A|-----3-----------0---------|---------3--2----0-------------3--|
E|-1--------3----------3-----|-1---3--------------3---1---3-----|


************************************
| h   Hammer-on
| /   Slide up
************************************

            
            
Suggest correction
Creating personal tab
Creating personal tab
You can edit any tab online and save it as your Personal.

You can edit, replace or remove any tab part or add personal notes – all changes will be seen only by you.

Personal tabs can be accessed anytime from any device, even offline.
Learn more »
comments
print report bad tab
1 comment total.
0 reply
albertyangyhm 10 May 31, 2017 10:57 AM

what is the chord progression.....

guest
You may want to rate the tab now too:
select rating
Wanna post a correction for this tab? Suggest correction