Oops, an error
Loading. Please wait.

Nana tab

version 3
version 3

Whole song

  • This tab is 75% close to the original song. I've s... Show more

Video

1,300 views 39 this week
1 commentread comment
1 2 3 4 5
x 3
add to favorites
×
Save as Personal and add changes to this tab that will be seen only by you. Learn more ›
×
You can save this tab as Personal to edit and correct it or add notes. All changes will be seen only by you. Learn more »
launch autoscroll
font size
0
reset
how to read this tab
guitar tuner
edit
Autoscroll
slow
fast
+/-
esc
set tempo
stop
ALL CREDITS GOES TO: Play It Right.
ORIGINAL TUTORIAL: https://www.youtube.com/watch?v=EptBc4ygvTI


RIFF 1

E|-------3------------|----3---------------|---------------------|------|
B|------------1-------|--------1--------0--|----1--------1-------|----1-|
G|-------2----0-------|-----------------0--|----0--------0-------|----0-|
D|--------------------|----0---2-----------|---------------------|------|
A|-----------------3--|--------------------|--------0------------|------|
E|--1-----------------|------------3-------|------------------3--|------|


RIFF 2

E|------3----------------------|-----------------3--------|
B|---------1-------------1-----|------0-----0h1--------1--|
G|--------------------0--------|---------0----------0-----|
D|--------------------------0--|--------------------------|
A|-----------------------------|--------------------------|
E|--1-------------1------------|--3-----------3-----------|

RIFF 3

E|-------3------------------|-------------------------------|-------3---------------------|---------------3--|
B|------------1--------0--1-|-----1-------1-------1-------1-|------------1-------1--------|----------1-------|
G|-------2----0--------0--0-|-----0-------0-------0-------0-|-------2----0-------0--------|-------0-----0----|
D|--------------------------|-------------------------------|-----------------------------|--2h3-----------3-|
A|------------------3-------|--3-------2-------0------------|--------------------------3--|------------------|
E|--1-----------------------|--------------------------3----|--1-------------3------------|------------------|

[Intro]

RIFF 1 x3 
RIFF 2 x1


[Verse 1]

RIFF1
I wish you'd walk in again
RIFF1
Imagine if you just did
RIFF1                                     RIFF2
I'd fill you in on the things you missed
RIFF 1                RIFF1
Oh sleepless nights, a grown up man dressed in white
RIFF 3            
Who I thought might just save your life
                      
But he couldn't, so you died


[Verse 2]

RIFF1
I don't like it, now you're dead
RIFF1
It's not the same when I scratch my own head
RIFF1                      RIFF2
I haven't got the nails for it
RIFF1
And I know that God doesn't exist
RIFF1
And all the palaver surrounding it
RIFF3
But I like to think you hear me sometimes


[Interlude]

COMING SOON

So I reached for a borrowed fleece
From my dad or from Denise
Always trying to keep warm, when you're the sun

[Verse 3]

RIFF1
I sat with you beside your bed and cried
RIFF1
For things that I wish I'd said
RIFF1                        RIFF2
You still had your nails red
RIFF3
And if I live past 72, I hope I'm half as cool as you



[Outro]


e|---------------------------|----------------------------------|
B|---------------------------|----------------------------------|
G|---------------------------|----------------------------------|
D|---------------------------|----------------------------------|
A|-----3-----------0---------|---------3--2----0-------------3--|
E|-1--------3----------3-----|-1---3--------------3---1---3-----|


I got my pen and thought that I'd write
A melody and line for you tonight
I think that's how I make things feel alright

Made in my room, this simple tune
Will always keep me close to you
The crowds will sing their voices ring
And it's like you never left

But I'm bereft you see
I think you can tell
I haven't been doing too well


************************************
| h   Hammer-on
************************************
Suggest correction
Creating personal tab
Creating personal tab
You can edit any tab online and save it as your Personal.

You can edit, replace or remove any tab part or add personal notes – all changes will be seen only by you.

Personal tabs can be accessed anytime from any device, even offline.
Learn more »
Give kudos to tab author, rate the tab!
1 2 3 4 5
comments
print report bad tab
1 comment total.
0 reply
MrsDrewIngle 84 Feb 26, 2017 07:32 PM

This is really good!!!! It's really accurate

guest
You may want to rate the tab now too:
select rating
Wanna post a correction for this tab? Suggest correction