Oops, an error
Loading. Please wait.

Robbers Live tab

version 5
version 5

Whole song

  • This version is more similar to how they play it live.
  • This tab is based around the live version they play not the studio version.
  • The tab version uses power cords and doesn't require a capo.
  • The bridge is different and i like it more please ... Show more

Interactive

316 views 9 this week
no commentswrite comment
1 2 3 4 5
3 more votes to show rating
add to favorites
×
Save as Personal and add changes to this tab that will be seen only by you. Learn more ›
×
You can save this tab as Personal to edit and correct it or add notes. All changes will be seen only by you. Learn more »
launch autoscroll
font size
0
reset
how to read this tab
guitar tuner
edit
Autoscroll
slow
fast
+/-
esc
set tempo
stop
Author
Difficulty
About this tab version
This tab is based around the live version they play not the studio version. Was this info helpful? Yes No
The 1975 - Robbers (Live Version) - https://www.youtube.com/watch?v=F6veap05rrg

Email: Darrenbelkmusic@gmail.com



[Intro] x4

LEAD GUITAR - Adam

e|------19-----16--16\-------------------------------------------------------|
B|--17------19---------------------------------------------------------------|
G|---------------------------------------------------------------------------|
D|---------------------------------------------------------------------------|
A|---------------------------------------------------------------------------|
E|---------------------------------------------------------------------------|

RHYTHM GUITAR - Matty (Pick/pluck note)

e|---------------------------------------------------------------------------|
B|---------------------------------------------------------------------------|
G|--9-9-9-9-9-9-9-9-8-8-8-8-8-8-8-8------------------------------------------|
D|---------------------------------------------------------------------------|
A|---------------------------------------------------------------------------|
E|---------------------------------------------------------------------------|


[Verse]

RHYTHM GUITAR - Matty (Pick/pluck note)- Repeated throughout verse

e|---------------------------------------------------------------------------|
B|---------------------------------------------------------------------------|
G|--9-9-9-9-9-9-9-9-8-8-8-8-8-8-8-8------------------------------------------|
D|---------------------------------------------------------------------------|
A|---------------------------------------------------------------------------|
E|---------------------------------------------------------------------------|


[Chorus]

LEAD GUITAR - Adam


e|------19-----16--16\-------------------------------------------------------|
B|--17------19---------------------------------------------------------------|
G|---------------------------------------------------------------------------|
D|---------------------------------------------------------------------------|
A|---------------------------------------------------------------------------|
E|---------------------------------------------------------------------------|

RHYTHM GUITAR - Matty (Pick/pluck note)

e|---------------------------------------------------------------------------|
B|---------------------------------------------------------------------------|
G|--9-9-9-9-9-9-9-9-8-8-8-8-8-8-8-8------------------------------------------|
D|---------------------------------------------------------------------------|
A|---------------------------------------------------------------------------|
E|---------------------------------------------------------------------------|


[Verse]

RHYTHM GUITAR - Matty (Pick/pluck note)- Repeated throughout verse

e|---------------------------------------------------------------------------|
B|---------------------------------------------------------------------------|
G|--9-9-9-9-9-9-9-9-8-8-8-8-8-8-8-8------------------------------------------|
D|---------------------------------------------------------------------------|
A|---------------------------------------------------------------------------|
E|---------------------------------------------------------------------------|


[Chorus]

LEAD GUITAR - Adam

e|------19-----16--16\-------------------------------------------------------|
B|--17------19---------------------------------------------------------------|
G|---------------------------------------------------------------------------|
D|---------------------------------------------------------------------------|
A|---------------------------------------------------------------------------|
E|---------------------------------------------------------------------------|

RHYTHM GUITAR - Matty (Pick/pluck note)

e|---------------------------------------------------------------------------|
B|---------------------------------------------------------------------------|
G|--9-9-9-9-9-9-9-9-8-8-8-8-8-8-8-8------------------------------------------|
D|---------------------------------------------------------------------------|
A|---------------------------------------------------------------------------|
E|---------------------------------------------------------------------------|


[Bridge] x8

LEAD GUITAR AND RHYTHM IN SYNC - Adam and Matty

e|---------------------------------------------------------------------------|
B|---------------------------------------------------------------------------|
G|--14-14-14-13-13-13-13-13--------------------------------------------------|
D|---------------------------------------------------------------------------|
A|---------------------------------------------------------------------------|
E|---------------------------------------------------------------------------|

LEAD GUITAR AND RHYTHM IN SYNC - Adam and Matty - Transposed above bridge onto D string

e|---------------------------------------------------------------------------|
B|--10-10-10-9-9-9-9---------------------------------------------------------|
G|---------------------------------------------------------------------------|
D|---------------------------------------------------------------------------|
A|---------------------------------------------------------------------------|
E|---------------------------------------------------------------------------|


[Outro]

LEAD GUITAR - Adam

e|---------------------------------------------------------------------------|
B|---------------------------------------------------------------------------|
G|---------------------------------------------------------------------------|
D|---------------------------------------------------------------------------|
A|--11-11-11\6-6-6-6-6/11-11-11\7-7-7-7-7------------------------------------|
E|---------------------------------------------------------------------------|

e|---------------------------------------------------------------------------|
B|---------------------------------------------------------------------------|
G|---------------------------------------------------------------------------|
D|---------------------------------------------------------------------------|
A|--12-12-11-11-12-12-11-11\10-10\8-8-8/12-12-11-11-12-12-11-11--------------|
E|---------------------------------------------------------------------------|

e|---------------------------------------------------------------------------|
B|---------------------------------------------------------------------------|
G|---------------------------------------------------------------------------|
D|---------------------------------------------------------------------------|
A|--11-11-11\6-6-6-6-6/11-11-11\7-7-7-7-7------------------------------------|
E|---------------------------------------------------------------------------|

ALTERNATIVE FOR LEAD - Adam - Transposed above lead outro onto D string

e|---------------------------------------------------------------------------|
B|---------------------------------------------------------------------------|
G|---------------------------------------------------------------------------|
D|--6--6--6\1-1-1-1/6-6-6\2-2-2-2-2------------------------------------------|
A|---------------------------------------------------------------------------|
E|---------------------------------------------------------------------------|

e|---------------------------------------------------------------------------|
B|---------------------------------------------------------------------------|
G|---------------------------------------------------------------------------|
D|--7-7-7-7-6-6-6-6-7-7-7-6-6-6-6-7-7-7-6-6-6\4-4-4\2-2-2/7-7-7-6-6-6--------|
A|---------------------------------------------------------------------------|
E|---------------------------------------------------------------------------|

e|---------------------------------------------------------------------------|
B|---------------------------------------------------------------------------|
G|---------------------------------------------------------------------------|
D|--6--6--6\1-1-1-1/6-6-6\2-2-2-2-2------------------------------------------|
A|---------------------------------------------------------------------------|
E|---------------------------------------------------------------------------|

RHYTHM GUITAR - Matty

e|---------------------------------------------------------------------------|
B|---------------------------------------------------------------------------|
G|--9-9-9-9-9-9-9-9-8-8-8-8-8-8-8-8------------------------------------------|
D|---------------------------------------------------------------------------|
A|---------------------------------------------------------------------------|
E|---------------------------------------------------------------------------|

ALTERNATIVE FOR RHYTHM - Matty - Repeated throughout outro

e|------19------19-----------------------------------------------------------|
B|--17------17-------------------------------------------------------17\-----|
G|---------------------------------------------------------------------------|
D|---------------------------------------------------------------------------|
A|---------------------------------------------------------------------------|
E|---------------------------------------------------------------------------|



************************************

| /   Slide up
| \   Slide down

************************************

            
            
Suggest correction
Creating personal tab
Creating personal tab
You can edit any tab online and save it as your Personal.

You can edit, replace or remove any tab part or add personal notes – all changes will be seen only by you.

Personal tabs can be accessed anytime from any device, even offline.
Learn more »
Give kudos to tab author, rate the tab!
1 2 3 4 5
comments
print report bad tab
guest
You may want to rate the tab now too:
select rating
Wanna post a correction for this tab? Suggest correction