Oops, an error
Loading. Please wait.

Robbers tab

version 6
version 6

Whole song

  • This version is more similar to how they play it live.
  • This tab is based around the live version they play not the studio version.
  • The tab version uses power cords and doesn't require a capo.
  • The bridge is different and i like it more please ... Show more

Interactive

259 views 1 this week
no commentswrite comment
1 2 3 4 5
3 more votes to show rating
add to favorites
×
Save as Personal and add changes to this tab that will be seen only by you. Learn more ›
×
You can save this tab as Personal to edit and correct it or add notes. All changes will be seen only by you. Learn more »
launch autoscroll
font size
0
reset
how to read this tab
guitar tuner
edit
Autoscroll
slow
fast
+/-
esc
set tempo
stop
Author
Difficulty
About this tab version
The tab version uses power cords and doesn't require a capo. Was this info helpful? Yes No
The 1975 - Robber
No capo required
Standard tuning : EADGBE

E5    :079900
E5/B  :779900
E5/C# :909900
Bsus4 :009970

[Intro]

e|----------|---------|---------|-----------------------------------------|
B|----------|---------|-7-7-7-7-|-7-7-7-7-7-7-7-7-7-7-7-7-7-7-7-7-7-7-7-7-|
G|--9-9-9-9-|-9-9-9-9-|-9-9-9-9-|-9-9-9-9-9-9-9-9-9-9-9-9-9-9-9-9-9-9-8-9-| 
D|--9-9-9-9-|-9-9-9-9-|-9-9-9-9-|-9-9-9-9-9-9-9-9-9-9-9-9-9-9-9-9-9-9-9-9-|x2
A|--7-7-7-7-|-7-7-7-7-|---------|-----------------------------------------|
E|----------|-7-7-7-7-|-9-9-9-9-|-----------------------------------------|

[Verse]

 E5         E5/B                     E5/C#      Bsus4
She had a face straight out a magazine
 E5         E5/B                   E5/C#        Bsus4
God only knows but you'll never leave her
 E5       E5/B                     E5/C#        Bsus4
Her balaclava is starting to chafe
              E5       
And when she gets his gun
       E5/B                 E5/C#     Bsus4
He's begging babe stay, stay, stay, stay, stay

e|----------|---------|---------|-----------------------------------------|
B|----------|---------|-7-7-7-7-|-7-7-7-7-7-7-7-7-7-7-7-7-7-7-7-7-7-7-7-7-|
G|--9-9-9-9-|-9-9-9-9-|-9-9-9-9-|-9-9-9-9-9-9-9-9-9-9-9-9-9-9-9-9-9-9-8-9-| 
D|--9-9-9-9-|-9-9-9-9-|-9-9-9-9-|-9-9-9-9-9-9-9-9-9-9-9-9-9-9-9-9-9-9-9-9-|x4
A|--7-7-7-7-|-7-7-7-7-|---------|-----------------------------------------|
E|----------|-7-7-7-7-|-9-9-9-9-|-----------------------------------------|


[Chorus]

              E5         E5/B
I'll give him one more time,
               E5/C#       Bsus4
We'll give him one more fight,
      E5         E5/B
Said one more lie,
     E5/C#   Bsus4
Will I know you

e|----------|---------|---------|-----------------------------------------|
B|----------|---------|-7-7-7-7-|-7-7-7-7-7-7-7-7-7-7-7-7-7-7-7-7-7-7-7-7-|
G|--9-9-9-9-|-9-9-9-9-|-9-9-9-9-|-9-9-9-9-9-9-9-9-9-9-9-9-9-9-9-9-9-9-8-9-| 
D|--9-9-9-9-|-9-9-9-9-|-9-9-9-9-|-9-9-9-9-9-9-9-9-9-9-9-9-9-9-9-9-9-9-9-9-|x2
A|--7-7-7-7-|-7-7-7-7-|---------|-----------------------------------------|
E|----------|-7-7-7-7-|-9-9-9-9-|-----------------------------------------|

[Pause]

e|----------|
B|----------|
G|--9-------|
D|--9-------|
A|--7-------|
E|----------|

[Verse]

 E5           E5/B                       E5/C#     Bsus4
Now if you never shoot you'll never know
 E5           E5/B                     E5/C#       Bsus4
And if you never eat you'll never grow
 E5          E5/B                 E5/C#       Bsus4
You got a pretty kinda dirty face
                E5          
And when she's leaving your home
       E5/B                    E5/C#       Bsus4
She's begging you stay, stay, stay, stay, stay, stay

e|----------|---------|---------|-----------------------------------------|
B|----------|---------|-7-7-7-7-|-7-7-7-7-7-7-7-7-7-7-7-7-7-7-7-7-7-7-7-7-|
G|--9-9-9-9-|-9-9-9-9-|-9-9-9-9-|-9-9-9-9-9-9-9-9-9-9-9-9-9-9-9-9-9-9-8-9-| 
D|--9-9-9-9-|-9-9-9-9-|-9-9-9-9-|-9-9-9-9-9-9-9-9-9-9-9-9-9-9-9-9-9-9-9-9-|x4
A|--7-7-7-7-|-7-7-7-7-|---------|-----------------------------------------|
E|----------|-7-7-7-7-|-9-9-9-9-|-----------------------------------------|


[Chorus]

              E5         E5/B
I'll give you one more time,
               E5/C#       Bsus4
We'll give you one more fight,
      E5         E5/B
Said one more line,
     E5/C#    Bsus4
Be a riot, cause I know you

e|----------|---------|---------|-----------------------------------------|
B|----------|---------|-7-7-7-7-|-7-7-7-7-7-7-7-7-7-7-7-7-7-7-7-7-7-7-7-7-|
G|--9-9-9-9-|-9-9-9-9-|-9-9-9-9-|-9-9-9-9-9-9-9-9-9-9-9-9-9-9-9-9-9-9-8-9-| 
D|--9-9-9-9-|-9-9-9-9-|-9-9-9-9-|-9-9-9-9-9-9-9-9-9-9-9-9-9-9-9-9-9-9-9-9-|x2
A|--7-7-7-7-|-7-7-7-7-|---------|-----------------------------------------|
E|----------|-7-7-7-7-|-9-9-9-9-|-----------------------------------------|
  

E5/C#        
Well now that you have got your gun
Bsus4
It's much harder now the police have come
E5/C#
Now shoot him if it's what you're worth
Bsus4                                E5
But if you just take off your mask
e|----------------------------------|---------------------------------|
B|----------------------------------|-7-7-7-7-7-7-7-7-7-7-7-7-7-7-7-7-|
G|--9-9-9-9-9-9-9-9-9-9-9-9-9-9-9-9-|-9-9-9-9-9-9-9-9-9-9-9-9-9-9-9-9-| 
D|--9-9-9-9-9-9-9-9-9-9-9-9-9-9-9-9-|-9-9-9-9-9-9-9-9-9-9-9-9-9-9-9-9-|x2
A|----------------------------------|---------------------------------|
E|--9-9-9-9-9-9-9-9-9-9-9-9-9-9-9-9-|---------------------------------|

    E5            E5/B      E5/C#   Bsus4
To find out that everything's gone wrong, wrong, wrong
e|---------------|----------|--------|---------------------------------|
B|---------------|----------|--------|-7-------------------------------|
G|--9------------|-9--------|-9------|-9-------------------------------|
D|--9------------|-9--------|-9------|-9-------------------------------|
A|--7------------|----------|--------|---------------------------------|
E|---------------|-7--------|-9------|---------------------------------|

[Verse/Outro]

 E5               E5/B
Now everybody's dead
 E5/C#                        Bsus4
They're driving past my old school
 E5                 E5/B
He's got his gun, he's got his suit on
E5/C#            Bsus4
She says babe
             E5       E5/B
You look so cool
             E5/C#     Bsus4    
You look so cool
             E5       E5/B       E5/C#       Bsus4
You look so cool

e|----------|---------|---------|-----------------------------------------|
B|----------|---------|-7-7-7-7-|-7-7-7-7-7-7-7-7-7-7-7-7-7-7-7-7-7-7-7-7-|
G|--9-9-9-9-|-9-9-9-9-|-9-9-9-9-|-9-9-9-9-9-9-9-9-9-9-9-9-9-9-9-9-9-9-8-9-| 
D|--9-9-9-9-|-9-9-9-9-|-9-9-9-9-|-9-9-9-9-9-9-9-9-9-9-9-9-9-9-9-9-9-9-9-9-|x4
A|--7-7-7-7-|-7-7-7-7-|---------|-----------------------------------------|
E|----------|-7-7-7-7-|-9-9-9-9-|-----------------------------------------|
            

[Finish on]

e|----------|
B|----------|
G|--9-------|
D|--9-------|
A|--7-------|
E|----------|

            
            
Suggest correction
Creating personal tab
Creating personal tab
You can edit any tab online and save it as your Personal.

You can edit, replace or remove any tab part or add personal notes – all changes will be seen only by you.

Personal tabs can be accessed anytime from any device, even offline.
Learn more »
Give kudos to tab author, rate the tab!
1 2 3 4 5
comments
print report bad tab
guest
You may want to rate the tab now too:
select rating
Wanna post a correction for this tab? Suggest correction