Oops, an error
Loading. Please wait.

Robbers Acoustic tab

version 7
version 7

Whole song

  • This version is more similar to how they play it live.
  • This tab is based around the live version they play not the studio version.
  • The tab version uses power cords and doesn't require a capo.
  • The bridge is different and i like it more please ... Show more

Interactive

385 views 48 this week
no commentswrite comment
1 2 3 4 5
x 3
add to favorites
×
Save as Personal and add changes to this tab that will be seen only by you. Learn more ›
×
You can save this tab as Personal to edit and correct it or add notes. All changes will be seen only by you. Learn more »
launch autoscroll
font size
0
reset
how to read this tab
guitar tuner
edit
Autoscroll
slow
fast
+/-
esc
set tempo
stop
Author
Difficulty
About this tab version
The bridge is different and i like it more please just accept it so i can save it to my favourites. Was this info helpful? Yes No
This is similar to the first acoustic version of this tab, but i made some changes in the bridge and chorus
i wanted to save. I didn't correct the other tabs because that is a perfectly valid way to play it and others
may prefer it as it is.

[Intro]
 
e|-0-0-0-0-0-0-0-|-0-0-0-0--0-0-0-0-0-|-0-0-0-0-0-0-0-|-0-0-0-0-0-0-0-0-0--|
B|-0-0-0-0-0-0-0-|-0-0-0-0--0-0-0-0-0-|-7-7-7-7-7-7-7-|-7-7-7-7-7-7-7-7-7--|
G|-9-9-9-9-9-9-9-|-9-9-9-9--9-9-9-9-9-|-9-9-9-9-9-9-9-|-9-9-9-9-9-9-9-9-9--|
D|-9-9-9-9-9-9-9-|-9-9-9-9--9-9-9-9-9-|-9-9-9-9-9-9-9-|-9-9-9-9-9-9-9-9-9--|
A|-7-7-7-7-7-7-7-|-x-x-x-x--x-x-x-x-x-|-0-0-0-0-0-0-0-|-0-0-0-0-0-0-0-0-0--|
E|-x-x-x-x-x-x-x-|-7-7-7-7--9-9-9-9-9-|-x-x-x-x-x-x-x-|-x-x-x-x-x-x-x-x-x--|

e|-0-0-0-0-0-0-0-|-0-0-0-0--0-0-0-0-0-|-0-0-0-0-0-0-0-|-0-0-0-0-0-0-0-0-0--|
B|-0-0-0-0-0-0-0-|-0-0-0-0--0-0-0-0-0-|-7-7-7-7-7-7-7-|-7-7-7-7-7-7-7-7-7--|
G|-9-9-9-9-9-9-9-|-9-9-9-9--9-9-9-9-9-|-9-9-9-9-9-9-9-|-9-9-9-9-9-9-9-9-9--|
D|-9-9-9-9-9-9-9-|-9-9-9-9--9-9-9-9-9-|-9-9-9-9-9-9-9-|-9-9-9-9-9-9-9-9-9--|
A|-7-7-7-7-7-7-7-|-x-x-x-x--x-x-x-x-x-|-0-0-0-0-0-0-0-|-0-0-0-0-0-0-0-0-0--|
E|-x-x-x-x-x-x-x-|-7-7-7-7--9-9-9-9-9-|-x-x-x-x-x-x-x-|-x-x-x-x-x-x-x-x-x--|


[Verse 1]
 
e|-0-0-0-0-0-0-0-|-0-0-0-0--0-0-0-0-0-|-0-0-0-0-0-0-0-|-0-0-0-0-0-0-0-0-0--|
B|-0-0-0-0-0-0-0-|-0-0-0-0--0-0-0-0-0-|-7-7-7-7-7-7-7-|-7-7-7-7-7-7-7-7-7--|
G|-9-9-9-9-9-9-9-|-9-9-9-9--9-9-9-9-9-|-9-9-9-9-9-9-9-|-9-9-9-9-9-9-9-9-9--|
D|-9-9-9-9-9-9-9-|-9-9-9-9--9-9-9-9-9-|-9-9-9-9-9-9-9-|-9-9-9-9-9-9-9-9-9--|
A|-7-7-7-7-7-7-7-|-x-x-x-x--x-x-x-x-x-|-0-0-0-0-0-0-0-|-0-0-0-0-0-0-0-0-0--|
E|-x-x-x-x-x-x-x-|-7-7-7-7--9-9-9-9-9-|-x-x-x-x-x-x-x-|-x-x-x-x-x-x-x-x-x--|

e|-0-0-0-0-0-0-0-|-0-0-0-0--0-0-0-0-0-|-0-0-0-0-0-0-0-|-0-0-0-0-0-0-0-0-0--|
B|-0-0-0-0-0-0-0-|-0-0-0-0--0-0-0-0-0-|-7-7-7-7-7-7-7-|-7-7-7-7-7-7-7-7-7--|
G|-9-9-9-9-9-9-9-|-9-9-9-9--9-9-9-9-9-|-9-9-9-9-9-9-9-|-9-9-9-9-9-9-9-9-9--|
D|-9-9-9-9-9-9-9-|-9-9-9-9--9-9-9-9-9-|-9-9-9-9-9-9-9-|-9-9-9-9-9-9-9-9-9--|
A|-7-7-7-7-7-7-7-|-x-x-x-x--x-x-x-x-x-|-0-0-0-0-0-0-0-|-0-0-0-0-0-0-0-0-0--|
E|-x-x-x-x-x-x-x-|-7-7-7-7--9-9-9-9-9-|-x-x-x-x-x-x-x-|-x-x-x-x-x-x-x-x-x--|

e|-0-0-0-0-0-0-0-|-0-0-0-0--0-0-0-0-0-|-0-0-0-0-0-0-0-|-0-0-0-0-0-0-0-0-0--|
B|-0-0-0-0-0-0-0-|-0-0-0-0--0-0-0-0-0-|-7-7-7-7-7-7-7-|-7-7-7-7-7-7-7-7-7--|
G|-9-9-9-9-9-9-9-|-9-9-9-9--9-9-9-9-9-|-9-9-9-9-9-9-9-|-9-9-9-9-9-9-9-9-9--|
D|-9-9-9-9-9-9-9-|-9-9-9-9--9-9-9-9-9-|-9-9-9-9-9-9-9-|-9-9-9-9-9-9-9-9-9--|
A|-7-7-7-7-7-7-7-|-x-x-x-x--x-x-x-x-x-|-0-0-0-0-0-0-0-|-0-0-0-0-0-0-0-0-0--|
E|-x-x-x-x-x-x-x-|-7-7-7-7--9-9-9-9-9-|-x-x-x-x-x-x-x-|-x-x-x-x-x-x-x-x-x--|

e|-0-0-0-0-0-0-0-|-0-0-0-0--0-0-0-0-0-|-0-0-0-0-0-0-0-|-0-0-0-0-0-0-0-0-0--|
B|-0-0-0-0-0-0-0-|-0-0-0-0--0-0-0-0-0-|-7-7-7-7-7-7-7-|-7-7-7-7-7-7-7-7-7--|
G|-9-9-9-9-9-9-9-|-9-9-9-9--9-9-9-9-9-|-9-9-9-9-9-9-9-|-9-9-9-9-9-9-9-9-9--|
D|-9-9-9-9-9-9-9-|-9-9-9-9--9-9-9-9-9-|-9-9-9-9-9-9-9-|-9-9-9-9-9-9-9-9-9--|
A|-7-7-7-7-7-7-7-|-x-x-x-x--x-x-x-x-x-|-0-0-0-0-0-0-0-|-0-0-0-0-0-0-0-0-0--|
E|-x-x-x-x-x-x-x-|-7-7-7-7--9-9-9-9-9-|-x-x-x-x-x-x-x-|-x-x-x-x-x-x-x-x-x--|


[Chorus] 
  
e|-0-0-0-0-0-0-0-|-0-0-0-0--0-0-0-0-0-|-0-0-0-0-0-0-0-|-0-0-0-0-0-0-0-0-0--|
B|-0-0-0-0-0-0-0-|-0-0-0-0--0-0-0-0-0-|-7-7-7-7-7-7-7-|-7-7-7-7-7-7-7-7-7--|
G|-9-9-9-9-9-9-9-|-9-9-9-9--9-9-9-9-9-|-9-9-9-9-9-9-9-|-9-9-9-9-9-9-9-9-9--|
D|-9-9-9-9-9-9-9-|-9-9-9-9--9-9-9-9-9-|-9-9-9-9-9-9-9-|-9-9-9-9-9-9-9-9-9--|
A|-7-7-7-7-7-7-7-|-x-x-x-x--x-x-x-x-x-|-0-0-0-0-0-0-0-|-0-0-0-0-0-0-0-0-0--|
E|-x-x-x-x-x-x-x-|-7-7-7-7--9-9-9-9-9-|-x-x-x-x-x-x-x-|-x-x-x-x-x-x-x-x-x--|

e|-0-0-0-0-0-0-0-|-0-0-0-0--0-0-0-0-0-|-0-0-0-0-0-0-0-|-0-0-0-0-0-0-0-0-0--|
B|-0-0-0-0-0-0-0-|-0-0-0-0--0-0-0-0-0-|-7-7-7-7-7-7-7-|-7-7-7-7-7-7-7-7-7--|
G|-9-9-9-9-9-9-9-|-9-9-9-9--9-9-9-9-9-|-9-9-9-9-9-9-9-|-9-9-9-9-9-9-9-9-9--|
D|-9-9-9-9-9-9-9-|-9-9-9-9--9-9-9-9-9-|-9-9-9-9-9-9-9-|-9-9-9-9-9-9-9-9-9--|
A|-7-7-7-7-7-7-7-|-x-x-x-x--x-x-x-x-x-|-0-0-0-0-0-0-0-|-0-0-0-0-0-0-0-0-0--|
E|-x-x-x-x-x-x-x-|-7-7-7-7--9-9-9-9-9-|-x-x-x-x-x-x-x-|-x-x-x-x-x-x-x-x-x--|


[Verse 2] 
 
e|-0-0-0-0-0-0-0-|-0-0-0-0--0-0-0-0-0-|-0-0-0-0-0-0-0-|-0-0-0-0-0-0-0-0-0--|
B|-0-0-0-0-0-0-0-|-0-0-0-0--0-0-0-0-0-|-7-7-7-7-7-7-7-|-7-7-7-7-7-7-7-7-7--|
G|-9-9-9-9-9-9-9-|-9-9-9-9--9-9-9-9-9-|-9-9-9-9-9-9-9-|-9-9-9-9-9-9-9-9-9--|
D|-9-9-9-9-9-9-9-|-9-9-9-9--9-9-9-9-9-|-9-9-9-9-9-9-9-|-9-9-9-9-9-9-9-9-9--|
A|-7-7-7-7-7-7-7-|-x-x-x-x--x-x-x-x-x-|-0-0-0-0-0-0-0-|-0-0-0-0-0-0-0-0-0--|
E|-x-x-x-x-x-x-x-|-7-7-7-7--9-9-9-9-9-|-x-x-x-x-x-x-x-|-x-x-x-x-x-x-x-x-x--|

e|-0-0-0-0-0-0-0-|-0-0-0-0--0-0-0-0-0-|-0-0-0-0-0-0-0-|-0-0-0-0-0-0-0-0-0--|
B|-0-0-0-0-0-0-0-|-0-0-0-0--0-0-0-0-0-|-7-7-7-7-7-7-7-|-7-7-7-7-7-7-7-7-7--|
G|-9-9-9-9-9-9-9-|-9-9-9-9--9-9-9-9-9-|-9-9-9-9-9-9-9-|-9-9-9-9-9-9-9-9-9--|
D|-9-9-9-9-9-9-9-|-9-9-9-9--9-9-9-9-9-|-9-9-9-9-9-9-9-|-9-9-9-9-9-9-9-9-9--|
A|-7-7-7-7-7-7-7-|-x-x-x-x--x-x-x-x-x-|-0-0-0-0-0-0-0-|-0-0-0-0-0-0-0-0-0--|
E|-x-x-x-x-x-x-x-|-7-7-7-7--9-9-9-9-9-|-x-x-x-x-x-x-x-|-x-x-x-x-x-x-x-x-x--|

e|-0-0-0-0-0-0-0-|-0-0-0-0--0-0-0-0-0-|-0-0-0-0-0-0-0-|-0-0-0-0-0-0-0-0-0--|
B|-0-0-0-0-0-0-0-|-0-0-0-0--0-0-0-0-0-|-7-7-7-7-7-7-7-|-7-7-7-7-7-7-7-7-7--|
G|-9-9-9-9-9-9-9-|-9-9-9-9--9-9-9-9-9-|-9-9-9-9-9-9-9-|-9-9-9-9-9-9-9-9-9--|
D|-9-9-9-9-9-9-9-|-9-9-9-9--9-9-9-9-9-|-9-9-9-9-9-9-9-|-9-9-9-9-9-9-9-9-9--|
A|-7-7-7-7-7-7-7-|-x-x-x-x--x-x-x-x-x-|-0-0-0-0-0-0-0-|-0-0-0-0-0-0-0-0-0--|
E|-x-x-x-x-x-x-x-|-7-7-7-7--9-9-9-9-9-|-x-x-x-x-x-x-x-|-x-x-x-x-x-x-x-x-x--|

e|-0-0-0-0-0-0-0-|-0-0-0-0--0-0-0-0-0-|-0-0-0-0-0-0-0-|-0-0-0-0-0-0-0-0-0--|
B|-0-0-0-0-0-0-0-|-0-0-0-0--0-0-0-0-0-|-7-7-7-7-7-7-7-|-7-7-7-7-7-7-7-7-7--|
G|-9-9-9-9-9-9-9-|-9-9-9-9--9-9-9-9-9-|-9-9-9-9-9-9-9-|-9-9-9-9-9-9-9-9-9--|
D|-9-9-9-9-9-9-9-|-9-9-9-9--9-9-9-9-9-|-9-9-9-9-9-9-9-|-9-9-9-9-9-9-9-9-9--|
A|-7-7-7-7-7-7-7-|-x-x-x-x--x-x-x-x-x-|-0-0-0-0-0-0-0-|-0-0-0-0-0-0-0-0-0--|
E|-x-x-x-x-x-x-x-|-7-7-7-7--9-9-9-9-9-|-x-x-x-x-x-x-x-|-x-x-x-x-x-x-x-x-x--|

[Chorus] 
 
e|-0-0-0-0-0-0-0-|-0-0-0-0-0-0-0-0-0-|-0-0-0-0-0-0-0-|-0-0-0-0-0-0-0-0-0--|
B|-0-0-0-0-0-0-0-|-7-7-7-7-7-7-7-7-7-|-0-0-0-0-0-0-0-|-0-0-0-0-0-0-0-0-0--|
G|-9-9-9-9-9-9-9-|-9-9-9-9-9-9-9-9-9-|-9-9-9-9-9-9-9-|-9-9-9-9-9-9-9-9-9--|
D|-9-9-9-9-9-9-9-|-9-9-9-9-9-9-9-9-9-|-9-9-9-9-9-9-9-|-9-9-9-9-9-9-9-9-9--|
A|-x-x-x-x-x-x-x-|-0-0-0-0-0-0-0-0-0-|-7-7-7-7-7-7-7-|-x-x-x-x-x-x-x-x-x--|
E|-9-9-9-9-9-9-9-|-x-x-x-x-x-x-x-x-x-|-x-x-x-x-x-x-x-|-7-7-7-7-7-7-7-7-7--|

e|-0-0-0-0-0-0-0-|-0-0-0-0-0-0-0-0-0-|-0-0-0-0-0-0-0-|-0-0-0-0-0-0-0-0-0--|
B|-0-0-0-0-0-0-0-|-7-7-7-7-7-7-7-7-7-|-0-0-0-0-0-0-0-|-0-0-0-0-0-0-0-0-0--|
G|-9-9-9-9-9-9-9-|-9-9-9-9-9-9-9-9-9-|-9-9-9-9-9-9-9-|-9-9-9-9-9-9-9-9-9--|
D|-9-9-9-9-9-9-9-|-9-9-9-9-9-9-9-9-9-|-9-9-9-9-9-9-9-|-9-9-9-9-9-9-9-9-9--|
A|-x-x-x-x-x-x-x-|-0-0-0-0-0-0-0-0-0-|-7-7-7-7-7-7-7-|-x-x-x-x-x-x-x-x-x--|
E|-9-9-9-9-9-9-9-|-x-x-x-x-x-x-x-x-x-|-x-x-x-x-x-x-x-|-7-7-7-7-7-7-7-7-7--|




Bridge]

   Well, now...      It's much harder...   Now I'll shoot...  But if you just take off...
e|-0--------------|--0-------------------|--0----------------|--0-----------------------|
B|-0--------------|--0-------------------|--0----------------|--0-----------------------|
G|-2--------------|--4-------------------|--2----------------|--4-----------------------|
D|-2--------------|--4-------------------|--2----------------|--4-----------------------|
A|-0--------------|--2-------------------|--0----------------|--2-----------------------|
E|-x--------------|--x-------------------|--x----------------|--x-----------------------|

    You find out everythings... wrong
e|--0----------|--0----------|--0----------|--0-------------------------------------|
B|--0----------|--0----------|--0----------|--0-------------------------------------|
G|--6----------|--4----------|--2----------|--2-------------------------------------|
D|--6----------|--4----------|--2----------|--2-------------------------------------|
A|--4----------|--2----------|--0----------|--0-------------------------------------|
E|--x----------|--x----------|--x----------|--x-------------------------------------|

 Now everybody's dead....
e|-0-0-0-0-0-0-0-|-0-0-0-0--0-0-0-0-0-|-0-0-0-0-0-0-0-|-0-0-0-0-0-0-0-0-0--|
B|-0-0-0-0-0-0-0-|-0-0-0-0--0-0-0-0-0-|-7-7-7-7-7-7-7-|-7-7-7-7-7-7-7-7-7--|
G|-9-9-9-9-9-9-9-|-9-9-9-9--9-9-9-9-9-|-9-9-9-9-9-9-9-|-9-9-9-9-9-9-9-9-9--|
D|-9-9-9-9-9-9-9-|-9-9-9-9--9-9-9-9-9-|-9-9-9-9-9-9-9-|-9-9-9-9-9-9-9-9-9--|
A|-7-7-7-7-7-7-7-|-x-x-x-x--x-x-x-x-x-|-0-0-0-0-0-0-0-|-0-0-0-0-0-0-0-0-0--|
E|-x-x-x-x-x-x-x-|-7-7-7-7--9-9-9-9-9-|-x-x-x-x-x-x-x-|-x-x-x-x-x-x-x-x-x--|

e|-0-0-0-0-0-0-0-|-0-0-0-0--0-0-0-0-0-|-0-0-0-0-0-0-0-|-0-0-0-0-0-0-0-0-0--|
B|-0-0-0-0-0-0-0-|-0-0-0-0--0-0-0-0-0-|-7-7-7-7-7-7-7-|-7-7-7-7-7-7-7-7-7--|
G|-9-9-9-9-9-9-9-|-9-9-9-9--9-9-9-9-9-|-9-9-9-9-9-9-9-|-9-9-9-9-9-9-9-9-9--|
D|-9-9-9-9-9-9-9-|-9-9-9-9--9-9-9-9-9-|-9-9-9-9-9-9-9-|-9-9-9-9-9-9-9-9-9--|
A|-7-7-7-7-7-7-7-|-x-x-x-x--x-x-x-x-x-|-0-0-0-0-0-0-0-|-0-0-0-0-0-0-0-0-0--|
E|-x-x-x-x-x-x-x-|-7-7-7-7--9-9-9-9-9-|-x-x-x-x-x-x-x-|-x-x-x-x-x-x-x-x-x--|

some variations of this tab and strumming pattern are made (for example, the change to 8th fret 
from 9th on the G string is made in different places occasionally), to allow for the style of the 
music.


| h   Hammer-on
| x   Dead note
| /   Slide-up
| pb  Pre-bend
| ~   Vibrato
| .   Staccato
Suggest correction
Creating personal tab
Creating personal tab
You can edit any tab online and save it as your Personal.

You can edit, replace or remove any tab part or add personal notes – all changes will be seen only by you.

Personal tabs can be accessed anytime from any device, even offline.
Learn more »
Give kudos to tab author, rate the tab!
1 2 3 4 5
comments
print report bad tab
guest
You may want to rate the tab now too:
select rating
Wanna post a correction for this tab? Suggest correction