Oops, an error
Loading. Please wait.

Sex Luke Friend Rendition tab

262 views 12 this week
no commentswrite comment
1 2 3 4 5
3 more votes to show rating
add to favorites
×
Save as Personal and add changes to this tab that will be seen only by you. Learn more ›
×
You can save this tab as Personal to edit and correct it or add notes. All changes will be seen only by you. Learn more »
launch autoscroll
font size
0
reset
how to read this tab
guitar tuner
edit
Autoscroll
slow
fast
+/-
esc
set tempo
stop
About this tab version
Rendition of Sex by The 1975 performed by Luke Friend. This is my first tab and the only of this song so please leave suggestions and rate. Was this info helpful? Yes No
Tabbed by Joshua Hanson, Cover by Luke Friend, Song by The 1975.

Contact: Joshuahansonhusker@gmail.com
This is Luke Friend's cover of Matty and The 1975's song "Sex." 
This is my first tab ever so please give me feedback and rate! 
Original video: https://www.youtube.com/watch?v=AZ5xsRjGK30
Tuning: CGCGGC
Capo: Fret 9


Intro and Verse Picking:

C|---------------------------------------------------------------------------------------------------|
G|---5-----5--------5-----5---------5-----5/7\5----4------4------4-----4-----------------------------|
G|-----0-----0--------0-----0---------0--------------0------0------0-----0---------------------------|
C|-------0--------------0---------------0--------------0-------------0---------------0h2-2h4-4p2p0---|
G|-5------------5-5-----------5-5-5-------------0-------------0-0-----------0h2-2h5------------------|
C|---------------------------------------------------------------------------------------------------|


Chords Used in Variation Throughout:
- The progression varies, very quick strums and hammer on's are thrown into the pattern similar to the intro. 

C|---------0--------------2--------------------------------------------------------------------------|
G|--5------4-------0------4--------------------------------------------------------------------------|
G|--0------0-------0------0--------------------------------------------------------------------------|
C|--0------0-------0------0--------------------------------------------------------------------------|
G|--5------0-------5------0--------------------------------------------------------------------------|
C|--0------0-------6---------------------------------------------------------------------------------|


/- slide up
\- slide down 
h- hammer on
p- pull off

            
            
Suggest correction
Creating personal tab
Creating personal tab
You can edit any tab online and save it as your Personal.

You can edit, replace or remove any tab part or add personal notes – all changes will be seen only by you.

Personal tabs can be accessed anytime from any device, even offline.
Learn more »
Give kudos to tab author, rate the tab!
1 2 3 4 5
comments
print report bad tab
guest
You may want to rate the tab now too:
select rating
Wanna post a correction for this tab? Suggest correction