Oops, an error
Loading. Please wait.

She Lays Down tab

version 1
version 1

Whole song

25,969 views 75 this week
no commentswrite comment
1 2 3 4 5
x 22
add to favorites
×
Save as Personal and add changes to this tab that will be seen only by you. Learn more ›
×
You can save this tab as Personal to edit and correct it or add notes. All changes will be seen only by you. Learn more »
launch autoscroll
font size
0
reset
how to read this tab
guitar tuner
edit
Autoscroll
slow
fast
+/-
esc
set tempo
stop
Author
The 1975 - She Lays Down
Tabbed by Harrison Wright
This tab is not the version that is from the album, but it is relatively close.



e|-3---0---0-------3--------------------------3---3--------3-----------------------|
B|-3---1---0-------3---3--------------------------3--------3---3-------------------|
G|-0---0---0-------0-------0--------------0----------------0--------0--------------|
D|-----------------------------0----0h2---------------0-----------------0---0h2----|
A|----------------------------------------------------2----------------------------|
E|-------------3--------------------------------------3----------------------------|


e|-3---0---0-------3--------------------------3---3--------3-----------------------|
B|-3---1---0-------3---3--------------------------3--------3---3-------------------|
G|-0---0---0-------0-------0--------------0----------------0--------0--------------|
D|-----------------------------0----0h2---------------0-----------------0---0h2----|
A|----------------------------------------------------2----------------------------|
E|-------------3--------------------------------------3----------------------------|

                                                                    
e|-----------------3--------------------------3---3--------3-----------------------|
B|-----------------3---3--------------------------3--------3---3-------------------|
G|-----------------0-------0--------------0----------------0--------0--------------|
D|-----------------------------0----0h2---------------0-----------------0---0h2----|
A|----------------------------------------------------2----------------------------|
E|-------------3--------------------------------------3----------------------------|

she   lays   down  

e|-----3---3-------3---3---------------------3---3--------3-----------------------|
B|---------3-------3-------0---------------------3--------3---3-------------------|
G|-0---------------0-----------0---------0----------------0--------0--------------|
D|---------------------------------0h2---------------0-----------------0---0h2----|
A|---------------------------------------------------2----------------------------|
E|-------------3-------------------------------------3----------------------------|

on her bedroom floor  

e|-----3---3-------0-----------------------------2-------------------------------|
B|---------3-------1-----------------------------3-------------------------------|
G|-0---------------2-----------------------------2-------------------------------|
D|-----------------2-----------------------------0-------------------------------|
A|-------------------------------------------------------------------------------|
E|-------------------------------------------------------------------------------|

              the chemicals that make her laugh don't seem to be working anymore

e|-----3--------------------------3---3--------3-----------------------|
B|-----3---3--------------------------3--------3---3-------------------|
G|-----0-------0--------------0----------------0--------0--------------|
D|-----------------0----0h2---------------0-----------------0---0h2----|
A|----------------------------------------2----------------------------|
E|-3--------------------------------------3----------------------------|


e|-----------------3--------------------------3---3--------3-----------------------|
B|-----------------3---3--------------------------3--------3---3-------------------|
G|-----------------0-------0--------------0----------------0--------0--------------|
D|-----------------------------0----0h2---------------0-----------------0---0h2----|
A|----------------------------------------------------2----------------------------|
E|-------------3--------------------------------------3----------------------------|

she tries her best,  

e|-----3---3-----------3---3---------------------3---3--------3-----------------------|
B|---------3-----------3-------0---------------------3--------3---3-------------------|
G|-0-------------------0-----------0---------0----------------0--------0--------------|
D|-------------------------------------0h2---------------0-----------------0---0h2----|
A|-------------------------------------------------------2----------------------------|
E|-----------------3-------------------------------------3----------------------------|

but it hurts her chest   
 
e|-----3---3-------0-----------------------------2--------------------------------------|
B|---------3-------1-----------------------------3--------------------------------------|
G|-0---------------2-----------------------------2--------------------------------------|
D|-----------------2-----------------------------0--------------------------------------|
A|--------------------------------------------------------------------------------------|
E|--------------------------------------------------------------------------------------|

              and even though her sun is gone she'd like to love her child nevertheless

e|-----3----------------------3---0---0-------3--------------------------|
B|-----3---3------------------3---1---0-------3---3----------------------|
G|-----0-------0--------------0---0---0-------0-------0------------------|
D|------------------0---0h2-------------------------------0---0h2--------|
A|-----------------------------------------------------------------------|
E|-3--------------------------------------3------------------------------|

e|-----------------3--------------------------3---3--------3-----------------------|
B|-----------------3---3--------------------------3--------3---3-------------------|
G|-----------------0-------0--------------0----------------0--------0--------------|
D|-----------------------------0----0h2---------------0-----------------0---0h2----|
A|----------------------------------------------------2----------------------------|
E|-------------3--------------------------------------3----------------------------|

my  hair  is  brown,  

e|-----3---3----------3---3---------------------3---3--------3-----------------------|
B|---------3----------3-------0---------------------3--------3---3-------------------|
G|-0------------------0-----------0---------0----------------0--------0--------------|
D|------------------------------------0h2---------------0-----------------0---0h2----|
A|------------------------------------------------------2----------------------------|
E|----------------3-------------------------------------3----------------------------|

she's scared to touch  

e|-----3---3-------0-----------------------------------2---------------------------------------|
B|---------3-------1-----------------------------------3---------------------------------------|
G|-0---------------2-----------------------------------2---------------------------------------|
D|-----------------2-----------------------------------0---------------------------------------|
A|---------------------------------------------------------------------------------------------|
E|---------------------------------------------------------------------------------------------|

              and she just wants to feel something and I don't think that's asking for too much

e|-----3--------------------------3---3--------3--------------------------3----|
B|-----3---3--------------------------3--------3---3---------------------------|
G|-----0-------0--------------0----------------0--------0-------------0--------|
D|-----------------0----0h2---------------0-----------------0---0h2------------|
A|----------------------------------------2------------------------------------|
E|-3--------------------------------------3------------------------------------|


e|----------0----------------------------2---2h3-------------------------------|
B|-0--------1----------------------------3---3---------------------------------|
G|----------2----------------------------2---2---------------------------------|
D|----------2------------------------0---0---0---------------------------------|
A|-----0-----------------------------------------------------------------------|
E|-----------------------------------------------------------------------------|

               and when I go to sleep 

e|-----2--------------------------------3---------------------------0---------------|
B|-----3--------------------------------5---------------------------2---------------|
G|-----4--------------------------------4---------------1-----------0---------------|
D|-----4----------------------------0-------------------2-----------2---------------|
A|-2------------------------------------------------2---2---------------------------|
E|------------------------------------------------------0---------------------------|

        that's when she begins to weep       she's appalled by not loving me at all

e|-0-------------------------------------2---3-----------------------------|
B|-1-------------------------------------3-------3-------------------------|
G|-2-------------------------------------2---------------------------------|
D|-2-------------------------------------0---------------------------------|
A|-------------------------------------------------------------------------|
E|---------------------------------------------------------------------3---|

     she wears a frown and dressing gown                and she lays down

e|-3--------------------------3---3--------3-----------------------|
B|-3---3--------------------------3--------3---3-------------------|
G|-0-------0--------------0----------------0--------0--------------|
D|-------------0----0h2---------------0-----------------0---0h2----|
A|------------------------------------2----------------------------|
E|------------------------------------3----------------------------|

e|-3---0---0-------3--------------------------3---3--------3-----------------------|
B|-3---1---0-------3---3--------------------------3--------3---3-------------------|
G|-0---0---0-------0-------0--------------0----------------0--------0--------------|
D|-----------------------------0----0h2---------------0-----------------0---0h2----|
A|----------------------------------------------------2----------------------------|
E|-------------3--------------------------------------3----------------------------| 

e|-----------------3--------------------------3---3--------3-----------------------|
B|-----------------3---3--------------------------3--------3---3-------------------|
G|-----------------0-------0--------------0----------------0--------0--------------|
D|-----------------------------0----0h2---------------0-----------------0---0h2----|
A|----------------------------------------------------2----------------------------|
E|-------------3--------------------------------------3----------------------------|

well we got a plane   

e|-----3---3------------3---3---------------------3---3--------3-----------------------|
B|---------3------------3-------0---------------------3--------3---3-------------------|
G|-0--------------------0-----------0---------0----------------0--------0--------------|
D|--------------------------------------0h2---------------0-----------------0---0h2----|
A|--------------------------------------------------------2----------------------------|
E|------------------3-------------------------------------3----------------------------|

going to see my dad again  

e|-----3---3-------0---------------------------------2-------------------------------|
B|---------3-------1---------------------------------3-------------------------------|
G|-0---------------2---------------------------------2-------------------------------|
D|-----------------2---------------------------------0-------------------------------|
A|-----------------------------------------------------------------------------------|
E|-----------------------------------------------------------------------------------|

              she prayed that we fell from the sky  simply to alleviate the pain 

e|-----3--------------------------3---3--------3-----------------------|
B|-----3---3--------------------------3--------3---3-------------------|
G|-----0-------0--------------0----------------0--------0--------------|
D|-----------------0----0h2---------------0-----------------0---0h2----|
A|----------------------------------------2----------------------------|
E|-3--------------------------------------3----------------------------|

e|-----------------3--------------------------3---3--------3-----------------------|
B|-----------------3---3--------------------------3--------3---3-------------------|
G|-----------------0-------0--------------0----------------0--------0--------------|
D|-----------------------------0----0h2---------------0-----------------0---0h2----|
A|----------------------------------------------------2----------------------------|
E|-------------3--------------------------------------3----------------------------|

        over water, hmmm   

e|-----3---3------------3---3---------------------3---3--------3-----------------------|
B|---------3------------3-------0---------------------3--------3---3-------------------|
G|-0--------------------0-----------0---------0----------------0--------0--------------|
D|--------------------------------------0h2---------------0-----------------0---0h2----|
A|--------------------------------------------------------2----------------------------|
E|------------------3-------------------------------------3----------------------------|

         over terrain  

e|-----3---3-------0---------------------------------2--------------------------------|
B|---------3-------1---------------------------------3--------------------------------|
G|-0---------------2---------------------------------2--------------------------------|
D|-----------------2---------------------------------0--------------------------------|
A|------------------------------------------------------------------------------------|
E|------------------------------------------------------------------------------------|

              the engines all go bust, we turn to dust and I've no reason to complain 

e|----------0---------------------------------2---2h3-------------------------------|
B|-0--------1---------------------------------3---3---------------------------------|
G|----------2---------------------------------2---2---------------------------------|
D|----------2-----------------------------0---0---0---------------------------------|
A|-----0----------------------------------------------------------------------------|
E|----------------------------------------------------------------------------------|

             and in the end she chose cocaine 

e|-----2--------------------------------3---------------------------0---------------|
B|-----3--------------------------------5---------------------------2---------------|
G|-----4--------------------------------4---------------1-----------0---------------|
D|-----4----------------------------0-------------------2-----------2---------------|
A|-2------------------------------------------------2---2---------------------------|
E|------------------------------------------------------0---------------------------|

        but it couldn't fix her brain       she's appalled by not loving me at all

e|-0-------------------------------------2---3-----------------------------|
B|-1-------------------------------------3-------3-------------------------|
G|-2-------------------------------------2---------------------------------|
D|-2-------------------------------------0---------------------------------|
A|-------------------------------------------------------------------------|
E|---------------------------------------------------------------------3---|

     she wears a frown and dressing gown             and she lays down

e|-3--------------------------3---3--------3-----------------------|
B|-3---3--------------------------3--------3---3-------------------|
G|-0-------0--------------0----------------0--------0--------------|
D|-------------0----0h2---------------0-----------------0---0h2----|
A|------------------------------------2----------------------------|
E|------------------------------------3----------------------------|

e|-3---0---0-------3--------------------------3---3--------3-----------------------|
B|-3---1---0-------3---3--------------------------3--------3---3-------------------|
G|-0---0---0-------0-------0--------------0----------------0--------0--------------|
D|-----------------------------0----0h2---------------0-----------------0---0h2----|
A|----------------------------------------------------2----------------------------|
E|-------------3--------------------------------------3----------------------------| 

e|-3---0---0---3------|
B|-3---1---0---3------|
G|-0---0---0---0------|
D|-------------0------|
A|-------------2------|
E|-------------3------| 




************************************
| h  Hammer-on
************************************
Suggest correction
Creating personal tab
Creating personal tab
You can edit any tab online and save it as your Personal.

You can edit, replace or remove any tab part or add personal notes – all changes will be seen only by you.

Personal tabs can be accessed anytime from any device, even offline.
Learn more »
comments
print report bad tab
guest
You may want to rate the tab now too:
select rating
Wanna post a correction for this tab? Suggest correction