Oops, an error
Loading. Please wait.

She Lays Down tab

version 2
version 2

Whole song

2,047 views 12 this week
no commentswrite comment
1 2 3 4 5
1 last vote to show rating
add to favorites
×
Save as Personal and add changes to this tab that will be seen only by you. Learn more ›
×
You can save this tab as Personal to edit and correct it or add notes. All changes will be seen only by you. Learn more »
launch autoscroll
font size
0
reset
how to read this tab
guitar tuner
edit
Autoscroll
slow
fast
+/-
esc
set tempo
stop
Author
Difficulty
This is a combination of the best parts from each version of this that I have seen, and I creates quite an 
accurate version 

Part 1

e|--3---0---0-------3-----------------------3---3-------3--------------------|
B|--3---1---0-------3---3-----------------------3-------3---3----------------|
G|--0---0---0-------0------0------------0---------------0------0-------------|
D|----------------------------0----0h2--------------0-------------0--0h2-----|
A|--------------------------------------------------2------------------------|
E|--------------3-----------------------------------3------------------------|

Part 2

e|---------------------------------------------------------------------------|
B|----------------------------------------3----------3-----------------------|
G|-------------0------------0------------------------------------------------|
D|------1------------1--------------4-----------4----------------------------|
A|---3-----3------3-----3--------5-----5-----5-----5-----4-------------------|
E|---------------------------------------------------------------------------|


Part 3:

e|---0------------------------------------------2---3------------------------|
B|---1------------------------------------------3------3---------------------|
G|---2------------------------------------------2----------------------------|
D|---2------------------------------------------0----------------------------|
A|---------------------------------------------------------------------------|
E|---------------------------------------------------------------------------|        

Part 1 variation 1:

e|------3---3-------3-----------------------3---3-------3--------------------|
B|----------3-------3---3-----------------------3-------3---3----------------|
G|--0---------------0------0------------0---------------0------0-------------|
D|----------------------------0----0h2--------------0-------------0--0h2-----|
A|--------------------------------------------------2------------------------|
E|--------------3-----------------------------------3------------------------|

Part 1 variation 2:
e|------------------3-----------------------3---3-------3--------------------|
B|------------------3---3-----------------------3-------3---3----------------|
G|------------------0------0------------0---------------0------0-------------|
D|----------------------------0----0h2--------------0-------------0--0h2-----|
A|--------------------------------------------------2------------------------|
E|--------------3-----------------------------------3------------------------|


/////////////////////////////////////////////////////////////////////////////


Intro:

e|--3---0---0-------3-----------------------3---3-------3--------------------|
B|--3---1---0-------3---3-----------------------3-------3---3----------------|
G|--0---0---0-------0------0------------0---------------0------0-------------|
D|----------------------------0----0h2--------------0-------------0--0h2-----|
A|--------------------------------------------------2------------------------|
E|--------------3-----------------------------------3------------------------|

e|--3---0---0-------3-----------------------3---3-------3--------------------|
B|--3---1---0-------3---3-----------------------3-------3---3----------------|
G|--0---0---0-------0------0------------0---------------0------0-------------|
D|----------------------------0----0h2--------------0-------------0--0h2-----|
A|--------------------------------------------------2------------------------|
E|--------------3-----------------------------------3------------------------|

e|------------------3-----------------------3---3-------3--------------------|
B|------------------3---3-----------------------3-------3---3----------------|
G|------------------0------0------------0---------------0------0-------------|
D|----------------------------0----0h2--------------0-------------0--0h2-----|
A|--------------------------------------------------2------------------------|
E|--------------3-----------------------------------3------------------------|

Verse 1:

And she lays down 
e|------3---3-------3-----------------------3---3-------3--------------------|
B|----------3-------3---3-----------------------3-------3---3----------------|
G|--0---------------0------0------------0---------------0------0-------------|
D|----------------------------0----0h2--------------0-------------0--0h2-----|
A|--------------------------------------------------2------------------------|
E|--------------3-----------------------------------3------------------------|

on her bedroom floor
e|------3---3-------3-----------------------3---3-------3--------------------|
B|----------3-------3---3-----------------------3-------3---3----------------|
G|--0---------------0------0------------0---------------0------0-------------|
D|----------------------------0----0h2--------------0-------------0--0h2-----|
A|--------------------------------------------------2------------------------|
E|--------------3-----------------------------------3------------------------|

The chemicals that make her laugh
e|------------------3-----------------------3---3-------3--------------------|
B|------------------3---3-----------------------3-------3---3----------------|
G|------------------0------0------------0---------------0------0-------------|
D|----------------------------0----0h2--------------0-------------0--0h2-----|
A|--------------------------------------------------2------------------------|
E|--------------3-----------------------------------3------------------------|

Don't seem to be working anymore
e|------------------3-----------------------3---3-------3--------------------|
B|------------------3---3-----------------------3-------3---3----------------|
G|------------------0------0------------0---------------0------0-------------|
D|----------------------------0----0h2--------------0-------------0--0h2-----|
A|--------------------------------------------------2------------------------|
E|--------------3-----------------------------------3------------------------|


She tries her best, 
e|--3---0---0-------3-----------------------3---3-------3--------------------|
B|--3---1---0-------3---3-----------------------3-------3---3----------------|
G|--0---0---0-------0------0------------0---------------0------0-------------|
D|----------------------------0----0h2--------------0-------------0--0h2-----|
A|--------------------------------------------------2------------------------|
E|--------------3-----------------------------------3------------------------|

but it hurts her chest
e|--3---0---0-------3-----------------------3---3-------3--------------------|
B|--3---1---0-------3---3-----------------------3-------3---3----------------|
G|--0---0---0-------0------0------------0---------------0------0-------------|
D|----------------------------0----0h2--------------0-------------0--0h2-----|
A|--------------------------------------------------2------------------------|
E|--------------3-----------------------------------3------------------------|

And even though her son is gone
e|------------------3-----------------------3---3-------3--------------------|
B|------------------3---3-----------------------3-------3---3----------------|
G|------------------0------0------------0---------------0------0-------------|
D|----------------------------0----0h2--------------0-------------0--0h2-----|
A|--------------------------------------------------2------------------------|
E|--------------3-----------------------------------3------------------------|

She'd like to love her child nevertheless
e|------------------3-----------------------3---3-------3--------------------|
B|------------------3---3-----------------------3-------3---3----------------|
G|------------------0------0------------0---------------0------0-------------|
D|----------------------------0----0h2--------------0-------------0--0h2-----|
A|--------------------------------------------------2------------------------|
E|--------------3-----------------------------------3------------------------|


My hair is brown, 
e|--3---0---0-------3-----------------------3---3-------3--------------------|
B|--3---1---0-------3---3-----------------------3-------3---3----------------|
G|--0---0---0-------0------0------------0---------------0------0-------------|
D|----------------------------0----0h2--------------0-------------0--0h2-----|
A|--------------------------------------------------2------------------------|
E|--------------3-----------------------------------3------------------------|

she's scared to touch
e|--3---0---0-------3-----------------------3---3-------3--------------------|
B|--3---1---0-------3---3-----------------------3-------3---3----------------|
G|--0---0---0-------0------0------------0---------------0------0-------------|
D|----------------------------0----0h2--------------0-------------0--0h2-----|
A|--------------------------------------------------2------------------------|
E|--------------3-----------------------------------3------------------------|

And she just wants to feel something and
e|------------------3-----------------------3---3-------3--------------------|
B|------------------3---3-----------------------3-------3---3----------------|
G|------------------0------0------------0---------------0------0-------------|
D|----------------------------0----0h2--------------0-------------0--0h2-----|
A|--------------------------------------------------2------------------------|
E|--------------3-----------------------------------3------------------------|

I don't think that's asking for too much
e|------------------3-----------------------3---3-------3--------------------|
B|------------------3---3-----------------------3-------3---3----------------|
G|------------------0------0------------0---------------0------0-------------|
D|----------------------------0----0h2--------------0-------------0--0h2-----|
A|--------------------------------------------------2------------------------|
E|--------------3-----------------------------------3------------------------|

e|------------------3-----------------------3---3-------3--------------------|
B|------------------3---3-----------------------3-------3---3----------------|
G|------------------0------0------------0---------------0------0-------------|
D|----------------------------0----0h2--------------0-------------0--0h2-----|
A|--------------------------------------------------2------------------------|
E|--------------3-----------------------------------3------------------------|

And when I go to sleep
e|---------------------------------------------------------------------------|
B|----------------------------------------3----------3-----------------------|
G|-------------0------------0------------------------------------------------|
D|------1------------1--------------4-----------4----------------------------|
A|---3-----3------3-----3--------5-----5-----5-----5-----4-------------------|
E|---------------------------------------------------------------------------|

 it's when she begins to weep
e|---------------------------------------------------------------------------|
B|----------------------------------------3----------3-----------------------|
G|-------------0------------0------------------------------------------------|
D|------1------------1--------------4-----------4----------------------------|
A|---3-----3------3-----3--------5-----5-----5-----5-----4-------------------|
E|---------------------------------------------------------------------------|


Chorus:
She's appalled by not loving me at all
e|---------------------------------------------------------------------------|
B|----------------------------------------3----------3-----------------------|
G|-------------0------------0------------------------------------------------|
D|------1------------1--------------4-----------4----------------------------|
A|---3-----3------3-----3--------5-----5-----5-----5-----4-------------------|
E|---------------------------------------------------------------------------|

She wears a frown and dressing gown
e|---------------------------------------------------------------------------|
B|----------------------------------------3----------3-----------------------|
G|-------------0------------0------------------------------------------------|
D|------1------------1--------------4-----------4----------------------------|
A|---3-----3------3-----3--------5-----5-----5-----5-----4-------------------|
E|---------------------------------------------------------------------------|

When she lays down

e|---0------------------------------------------2---3------------------------|
B|---1------------------------------------------3------3---------------------|
G|---2------------------------------------------2----------------------------|
D|---2------------------------------------------0----------------------------|
A|---------------------------------------------------------------------------|
E|-----------------------------------------------------------------3---------|


Verse 2:
Well we got a plane, 
e|--3---0---0-------3-----------------------3---3-------3--------------------|
B|--3---1---0-------3---3-----------------------3-------3---3----------------|
G|--0---0---0-------0------0------------0---------------0------0-------------|
D|----------------------------0----0h2--------------0-------------0--0h2-----|
A|--------------------------------------------------2------------------------|
E|--------------3-----------------------------------3------------------------|

going to see my dad again
e|--3---0---0-------3-----------------------3---3-------3--------------------|
B|--3---1---0-------3---3-----------------------3-------3---3----------------|
G|--0---0---0-------0------0------------0---------------0------0-------------|
D|----------------------------0----0h2--------------0-------------0--0h2-----|
A|--------------------------------------------------2------------------------|
E|--------------3-----------------------------------3------------------------|

She prayed that we fell from the sky
e|------------------3-----------------------3---3-------3--------------------|
B|------------------3---3-----------------------3-------3---3----------------|
G|------------------0------0------------0---------------0------0-------------|
D|----------------------------0----0h2--------------0-------------0--0h2-----|
A|--------------------------------------------------2------------------------|
E|--------------3-----------------------------------3------------------------|

Simply to alleviate the pain
e|------------------3-----------------------3---3-------3--------------------|
B|------------------3---3-----------------------3-------3---3----------------|
G|------------------0------0------------0---------------0------0-------------|
D|----------------------------0----0h2--------------0-------------0--0h2-----|
A|--------------------------------------------------2------------------------|
E|--------------3-----------------------------------3------------------------|

Over the water,
e|--3---0---0-------3-----------------------3---3-------3--------------------|
B|--3---1---0-------3---3-----------------------3-------3---3----------------|
G|--0---0---0-------0------0------------0---------------0------0-------------|
D|----------------------------0----0h2--------------0-------------0--0h2-----|
A|--------------------------------------------------2------------------------|
E|--------------3-----------------------------------3------------------------|

 hmm Over terrain
e|--3---0---0-------3-----------------------3---3-------3--------------------|
B|--3---1---0-------3---3-----------------------3-------3---3----------------|
G|--0---0---0-------0------0------------0---------------0------0-------------|
D|----------------------------0----0h2--------------0-------------0--0h2-----|
A|--------------------------------------------------2------------------------|
E|--------------3-----------------------------------3------------------------|

The engines all go bust, we turned to dust
e|------------------3-----------------------3---3-------3--------------------|
B|------------------3---3-----------------------3-------3---3----------------|
G|------------------0------0------------0---------------0------0-------------|
D|----------------------------0----0h2--------------0-------------0--0h2-----|
A|--------------------------------------------------2------------------------|
E|--------------3-----------------------------------3------------------------|

And I've no reason to complain, yeah
e|------------------3-----------------------3---3-------3--------------------|
B|------------------3---3-----------------------3-------3---3----------------|
G|------------------0------0------------0---------------0------0-------------|
D|----------------------------0----0h2--------------0-------------0--0h2-----|
A|--------------------------------------------------2------------------------|
E|--------------3-----------------------------------3------------------------|

e|------------------3-----------------------3---3-------3--------------------|
B|------------------3---3-----------------------3-------3---3----------------|
G|------------------0------0------------0---------------0------0-------------|
D|----------------------------0----0h2--------------0-------------0--0h2-----|
A|--------------------------------------------------2------------------------|
E|--------------3-----------------------------------3------------------------|


And in the end, she chose cocaine
e|---------------------------------------------------------------------------|
B|----------------------------------------3----------3-----------------------|
G|-------------0------------0------------------------------------------------|
D|------1------------1--------------4-----------4----------------------------|
A|---3-----3------3-----3--------5-----5-----5-----5-----4-------------------|
E|---------------------------------------------------------------------------|

But it couldn't fix her brain
e|---------------------------------------------------------------------------|
B|----------------------------------------3----------3-----------------------|
G|-------------0------------0------------------------------------------------|
D|------1------------1--------------4-----------4----------------------------|
A|---3-----3------3-----3--------5-----5-----5-----5-----4-------------------|
E|---------------------------------------------------------------------------|

Chorus:
She's appalled oh she doesn't love me at all
e|---------------------------------------------------------------------------|
B|----------------------------------------3----------3-----------------------|
G|-------------0------------0------------------------------------------------|
D|------1------------1--------------4-----------4----------------------------|
A|---3-----3------3-----3--------5-----5-----5-----5-----4-------------------|
E|---------------------------------------------------------------------------|

She wears a frown and dressing gown
e|---------------------------------------------------------------------------|
B|----------------------------------------3----------3-----------------------|
G|-------------0------------0------------------------------------------------|
D|------1------------1--------------4-----------4----------------------------|
A|---3-----3------3-----3--------5-----5-----5-----5-----4-------------------|
E|---------------------------------------------------------------------------|

When she lays down
e|--3---0---0-------3-----------------------3---3-------3--------------------|
B|--3---1---0-------3---3-----------------------3-------3---3----------------|
G|--0---0---0-------0------0------------0---------------0------0-------------|
D|----------------------------0----0h2--------------0-------------0--0h2-----|
A|--------------------------------------------------2------------------------|
E|--------------3-----------------------------------3------------------------|





            
            
Suggest correction
Creating personal tab
Creating personal tab
You can edit any tab online and save it as your Personal.

You can edit, replace or remove any tab part or add personal notes – all changes will be seen only by you.

Personal tabs can be accessed anytime from any device, even offline.
Learn more »
Give kudos to tab author, rate the tab!
1 2 3 4 5
comments
print report bad tab
guest
You may want to rate the tab now too:
select rating
Wanna post a correction for this tab? Suggest correction