Oops, an error
Loading. Please wait.

She Lays Down tab

version 4
version 4

Whole song

14,065 views 267 this week
3 commentsread comments
1 2 3 4 5
x 27
add to favorites
×
Save as Personal and add changes to this tab that will be seen only by you. Learn more ›
×
You can save this tab as Personal to edit and correct it or add notes. All changes will be seen only by you. Learn more »
launch autoscroll
font size
0
reset
how to read this tab
guitar tuner
edit
Autoscroll
slow
fast
+/-
esc
set tempo
stop
Author
She Lays Down- The 1975


*I did not make this tab, I simply arranged it by watching this tab on YouTube. All credits go to 
'Play It Right' on YouTube, please subscribe. Link is below. 

YouTube Link: https://www.youtube.com/watch?v=zb4jNaA8v_w


[Intro]

e|--------------3-----------------3------------3-----------|
B|---3-1---0------0---0-------1-------1p0--------0---------|
G|---0---0----------0-------0---0---0--------0---------0---|
D|---4-2----------------0h2----------------0-------0h2-----|
A|---------------------------------------------------------|
E|-----------3--------------------------3------------------|

e|--------------3-----------------3------------3-------------3---------|
B|---3-1---0------0---0-------1-------1p0--------0-------1-------1p0---|
G|-------0----------0-------0---0---0--------0---------0---0---0-------|
D|---4-2----------------0h2----------------0-------0h2-----------------|
A|---------------------------------------------------------------------|
E|-----------3--------------------------3--------------------------3---|



[Verse]

And she lays down on her bedroom floor

e|---3-----------------3-----------3-------------3---------|
B|-----0---0-------1-------1p0-------0-------1-------1p0---|
G|-------0-------0---0---0-------0---------0---0---0-------|
D|-----------0h2---------------0-------0h2-----------------|
A|---------------------------------------------------------|
E|---------------------------3-------------------------3---|

e|---3-----------------3-----------3-------------3---------|
B|-----0---0-------1-------1p0-------0-------1-------1-----|
G|-------0-------0---0---0-------0---------0---0---0-------|
D|-----------0h2---------------0-------0h2-----------------|
A|---------------------------------------------------------|
E|---------------------------3-----------------------------|

The chemicals that make her laugh, don't seem to be working anymore

e|-------------3---------------------------2---------------|
B|-------1-------1---1---------------1-------1---1-----0---|
G|---------0-------0---0---0-------2---2-------2---2-------|
D|-----2-----2-----------2-------0-------0-----------0-----|
A|---0-----------------------------------------------------|
E|---------------------------------------------------------|

e|-----3-------------------------3-----------------3---------|
B|-------0---0---------3-1---0-----0---0-------1-------1p0---|
G|---------0-------0-------0---------0-------0---0---0-------|
D|-------------0h2-----4-2---------------0h2-----------------|
A|-----------------------------------------------------------|
E|---3-------------------------3-------------------------3---|


She tries her best,

e|---3-----------------3-----------3-------------3---------|
B|-----0---0-------1-------1p0-------0-------1-------1p0---|
G|-------0-------0---0---0-------0---------0---0---0-------|
D|-----------0h2---------------0-------0h2-----------------|
A|---------------------------------------------------------|
E|---------------------------3-------------------------3---|

But it hurts her chest

e|---3-----------------3-----------3-------------3---------|
B|-----0---0-------1-------1p0-------0-------1-------1-----|
G|-------0-------0---0---0-------0---------0---0---0-------|
D|-----------0h2---------------0-------0h2-----------------|
A|---------------------------------------------------------|
E|---------------------------3-----------------------------|

And even though her son is gone, she'd like to love her child nevertheless

e|-------------3---------------------------2---------------|
B|-------1-------1---1---------------1-------1---1-----0---|
G|---------0-------0---0---0-------2---2-------2---2-------|
D|-----2-----2-----------2-------0-------0-----------0-----|
A|---0-----------------------------------------------------|
E|---------------------------------------------------------|

e|-----3-----------------3-----------3-------------3---------|
B|-------0---0-------1-------1p0-------0-------1-------1p0---|
G|---------0-------0---0---0-------0---------0---0---0-------|
D|-------------0h2---------------0-------0h2-----------------|
A|-----------------------------------------------------------|
E|---3-------------------------3-------------------------3---|


[Verse 2]

My hair is brown, 

e|---3-----------------3-----------3-------------3---------|
B|-----0---0-------1-------1p0-------0-------1-------1p0---|
G|-------0-------0---0---0-------0---------0---0---0-------|
D|-----------0h2---------------0-------0h2-----------------|
A|---------------------------------------------------------|
E|---------------------------3-------------------------3---|

She's scared to touch

e|---3-----------------3-----------3-------------3---------|
B|-----0---0-------1-------1p0-------0-------1-------1-----|
G|-------0-------0---0---0-------0---------0---0---0-------|
D|-----------0h2---------------0-------0h2-----------------|
A|---------------------------------------------------------|
E|---------------------------3-----------------------------|

And she just wants to feel something, and I don't think that's asking for too much

e|-------------3---------------------------2---------------|
B|-------1-------1---1---------------1-------1---1-----0---|
G|---------0-------0---0---0-------2---2-------2---2-------|
D|-----2-----2-----------2-------0-------0-----------0-----|
A|---0-----------------------------------------------------|
E|---------------------------------------------------------|

e|-----3-----------------3------------3-----------0--------|
B|-------0---0-------1-------1p0--------0-------0---0------|
G|---------0-------0---0---0--------0-------1--------------|
D|-------------0h2----------------0-----------0------------|
A|------------------------------------------2--------------|
E|---3-------------------------3---------------------------|


When I go to sleep

e|-------------3---------------------------2-----2h3-3-----|
B|-------1-------1---1---------------1-------1---------0---|
G|---------0-------0---0---0-------2---2-------2-----------|
D|-----2-----2-----------2-------0-------0-----------------|
A|---0-----------------------------------------------------|
E|---------------------------------------------------------| 

It's when she begins to weep, She's appalled by not loving me at all

e|---------3---------0-------------0-----------------------|
B|-------0---------0---0-------0-----0-----0-------0-------|
G|-----0-------2-----------------0-------0---0---0---0-----|
D|---------------1-----------2---------1-------0-----------|
A|-------------2---------------------------------------4---|
E|---3---------------------0-------------------------------|
 
She wears a frown and dressing gown when she lays down

e|-------2---2h3-3-----3-----------------3-------3---------------------|
B|---1---1---------0-----0---0-------1-------1p0---0---0-----3-1---0---|
G|---0---------------------0-------0---0---0---------0-----------0-----|
D|-------0---------------------0h2-----------------------0h2-4-2-------|
A|---0-----------------------------------------------------------------|
E|-------------------3-------------------------3-----------------------|

e|---3-----------------3-----------3-------------3---------|
B|-----0---0-------1-------1p0-------0-------1-------1p0---|
G|-------0-------0---0---0-------0---------0---0---0-------|
D|-----------0h2---------------0-------0h2-----------------|
A|---------------------------------------------------------|
E|---------------------------3-------------------------3---|


[Verse 3]

Well we got a plane, going to see my dad again

e|---3-----------------3-----------3-------------3---------|
B|-----0---0-------1-------1p0-------0-------1-------1p0---|
G|-------0-------0---0---0-------0---------0---0---0-------|
D|-----------0h2---------------0-------0h2-----------------|
A|---------------------------------------------------------|
E|---------------------------3-------------------------3---|

e|---3-----------------3-----------3-------------3---------|
B|-----0---0-------1-------1p0-------0-------1-------1-----|
G|-------0-------0---0---0-------0---------0---0---0-------|
D|-----------0h2---------------0-------0h2-----------------|
A|---------------------------------------------------------|
E|---------------------------3-----------------------------|

She prayed that we fell from the sky, simply to alleviate the pain

e|-------------3---------------------------2---------------|
B|-------1-------1---1---------------1-------1---1-----0---|
G|---------0-------0---0---0-------2---2-------2---2-------|
D|-----2-----2-----------2-------0-------0-----------0-----|
A|---0-----------------------------------------------------|
E|---------------------------------------------------------|

e|-----3-------------------------3-----------------3---------|
B|-------0---0---------3-1---0-----0---0-------1-------1p0---|
G|---------0-------0-------0---------0-------0---0---0-------|
D|-------------0h2-----4-2---------------0h2-----------------|
A|-----------------------------------------------------------|
E|---3-------------------------3-------------------------3---|

Over Water, over terrain

e|---3-----------------3-----------3-------------3---------|
B|-----0---0-------1-------1p0-------0-------1-------1p0---|
G|-------0-------0---0---0-------0---------0---0---0-------|
D|-----------0h2---------------0-------0h2-----------------|
A|---------------------------------------------------------|
E|---------------------------3-------------------------3---|

e|---3-----------------3-----------3-------------3---------|
B|-----0---0-------1-------1p0-------0-------1-------1-----|
G|-------0-------0---0---0-------0---------0---0---0-------|
D|-----------0h2---------------0-------0h2-----------------|
A|---------------------------------------------------------|
E|---------------------------3-----------------------------|


The engines all go bust, we turned to dust and I've no reason to complain, yeah

e|-------------3---------------------------2-----2h3-3-----|
B|-------1-------1---1---------------1-------1---------0---|
G|---------0-------0---0---0-------2---2-------2-----------|
D|-----2-----2-----------2-------0-------0-----------------|
A|---0-----------------------------------------------------|
E|---------------------------------------------------------| 

And in the end, she chose cocaine, but it couldn't fix her brain

e|-----3-------------0---------------3------------------------2-----2h3-3-----|
B|-------0---0-----0---0-------1-------1---1------------1-------1---------0---|
G|---------0---2-----------------0-------0---0---0----2---2-------2-----------|
D|---------------1-----------2-----2-----------2----0-------0-----------------|
A|-------------2-----------0--------------------------------------------------|
E|---3------------------------------------------------------------------------|


She's appalled oh she doesn't love me at all

e|---------3---------0-------------0-----------------------|
B|-------0---------0---0-------0-----0-----0-------0-------|
G|-----0-------2-----------------0-------0---0---0---0-----|
D|---------------1-----------2---------1-------0-----------|
A|-------------2---------------------------------------4---|
E|---3---------------------0-------------------------------|

She wears a frown and dressing gown, when she lays down. That was it

e|-------2---2h3-3-----3-----------------------3----------------------0---|
B|---1---1---------0-----0---0-------3-1---0-----0---0-------3-1---0--0---|
G|---0---------------------0-------0-----0---------0-------0-----0----0---|
D|-------0---------------------0h2---4-2---------------0h2---4-2------0---|
A|---0---------------3------------------------------------------------2---|
E|-------------------------------------------3------------------------3---|


************************************

| h   Hammer-on
| p   Pull-off

************************************

            
            
Suggest correction
Creating personal tab
Creating personal tab
You can edit any tab online and save it as your Personal.

You can edit, replace or remove any tab part or add personal notes – all changes will be seen only by you.

Personal tabs can be accessed anytime from any device, even offline.
Learn more »
comments
print report bad tab
3 comments total.
0 reply
mariealpaka 68 Sep 22, 2016 09:26 AM

perfect tab thank you! except i think there's a tab line missing between the "The engines all go bust, we turned to dust and I've no reason to complain, yeah" and the "And in the end, she chose cocaine, but it couldn't fix her brain".

0 reply
MrsDrewIngle 84 Apr 04, 2017 11:09 AM

I think these lines need to be switched
And in the end, she chose cocaine, but it couldn't fix her brain

e|---3-------------0-------------3------------------------2-----2h3-3---|
B|----0---0-----0---0-----1-------1---1------------1-------1---------0--|
G|-------0---2---------------0-------0---0---0----2---2-------2---------|
D|-------------1---------2-----2-----------2----0-------0---------------|
A|-----------2---------0------------------------------------------------|
E|-3--------------------------------------------------------------------|

She's appalled oh she doesn't love me at all

e|---------3---------0-------------0-----------------------|
B|-------0---------0---0-------0-----0-----0-------0-------|
G|-----0-------2-----------------0-------0---0---0---0-----|
D|---------------1-----------2---------1-------0-----------|
A|-------------2---------------------------------------4---|
E|---3---------------------0-------------------------------|

guest
You may want to rate the tab now too:
select rating
Wanna post a correction for this tab? Suggest correction