Oops, an error
Loading. Please wait.

Shes American bass

version 2
version 2

Whole song

  • Originally published by Chris Khalife on his websi... Show more
73 views 3 this week
no commentswrite comment
1 2 3 4 5
2 more votes to show rating
add to favorites
×
Save as Personal and add changes to this tab that will be seen only by you. Learn more ›
×
You can save this tab as Personal to edit and correct it or add notes. All changes will be seen only by you. Learn more »
launch autoscroll
font size
0
reset
guitar tuner
edit
Autoscroll
slow
fast
+/-
esc
set tempo
stop
About this tab version
Originally published by Chris Khalife on his website, Chris Khalife Bass Tabs.com. Was this info helpful? Yes No
[Intro]
Gb|-----------------|-----------------|-----------------|-----------------|
Db|-----------------|-----------------|-----------------|-----------------|
Ab|-----------------|-----------------|-----------------|-----------------|
Eb|-3---3---------3-|-3-----------0-3-|-5-----5-----7---|-7---------------|

Gb|-----------------|-----------------|-----------------|-----------------|
Db|-----------------|-----------------|-----------------|-----------------|
Ab|-----------------|-----------------|-----------------|-----------------|
Eb|-3---3---------3-|-3-----------0-3-|-5-----5-----7---|-7-------5-------|

Gb|-----------------|-----------------|-----------------|-----------------|
Db|-----------------|-----------------|-----------------|-----------------|
Ab|-----------------|-----------------|-----------------|-----------------|
Eb|-3---3---------3-|-3-----------0-3-|-5-----5-----7---|-7---------------|

Gb|-----------------|-----------------|-----------------|-----------------|
Db|-----------------|-----------------|-----------------|-----------------|
Ab|-----------------|-----------------|-----------------|-----------------|
Eb|-0---0---------0-|-------------5---|-----------------|-----------------|

[Verse 1]                                                                    __
Gb|-----------------|-----------------|-----------------|-----------------|    |
Db|-----------------|-----------------|-----------------|-----------------|    |
Ab|-----------------|-----------------|-----------------|-----------------|    |
Eb|-7---------------|-----------------|-----------------|-----------------|    |
                                                                               |
Gb|-----------------|-----------------|-----------------|-----------------|    |
Db|-----------------|-----------------|-----------------|-----------------|    |
Ab|-----------------|-----------------|-----------------|-----------------|    |
Eb|-3-------3-------|-3---------------|-3-----------3---|-3-------5-------|    |
                                                                               | (x3)
Gb|-----------------|-----------------|-----------------|-----------------|    |
Db|-----------------|-------------7/9-|---7-------------|-----------------|    |
Ab|-----------------|-----------------|-----------------|-----------------|    |
Eb|-7---------------|-----------------|-----------------|-----------------|    |
                                                                               |
Gb|-----------------|-----------------|-----------------|-----------------|    |
Db|-----------------|-----------------|-----------------|-----------------|    |
Ab|-----------------|-----------------|-----------------|-----------------|    |
Eb|-3-------3-------|-3---------------|-3-----------3---|-3-------5-------|  __|

[Pre-Chorus 1]
Gb|-----------------|-----------------|-----------------|-----------------|
Db|-----------------|-----------------|-----------------|-----------------|
Ab|-----------------|-----------------|-----------------|-----------------|
Eb|-0-----0---------|-0-----------0---|-2-----2---------|-2---------------|

Gb|-----------------|-----------------|-----------------|-----------------|
Db|-----------------|-----------------|-----------------|-----------------|
Ab|-----------------|-----------------|-----------------|---------9\------|
Eb|-3-----3-----3---|-3-----------5---|-----------------|-----------------|

[Chorus 1]                                                                   __
Gb|-----------------|-----------------|-----------------|-----------------|    |
Db|-----------------|-----------------|-----------------|-----------------|    |
Ab|-----------------|-----------------|-----------------|-----------------|    |
Eb|-3---3---------3-|-3-----------0-3-|-5-----5-----7---|-7---------------|    |
                                                                               | (x3)
Gb|-----------------|-----------------|-----------------|-----------------|    |
Db|-----------------|-----------------|-----------------|-----------------|    |
Ab|-----------------|-----------------|-----------------|-----------------|    |
Eb|-3---3---------3-|-3-----------0-3-|-5-----5-----7---|-7-------5-------|  __|

Gb|-----------------|-----------------|-----------------|-----------------|
Db|-----------------|-----------------|-----------------|-----------------|
Ab|-----------------|-----------------|-----------------|-----------------|
Eb|-3---3---------3-|-3-----------0-3-|-5-----5-----7---|-7---------------|

Gb|-----------------|-----------------|-----------------|-----------------|
Db|-----------------|-----------------|-----------------|-----------------|
Ab|-----------------|-----------------|-----------------|-----------------|
Eb|-0---0---------0-|-------------5---|-----------------|-----------------|

[Verse 2]
Gb|-----------------|-----------------|-----------------|-----------------|
Db|-----------------|-----------------|-----------------|-----------------|
Ab|-----------------|-----------------|-----------------|-----------------|
Eb|-7---------------|-----------------|-----------------|-----------------|

Gb|-----------------|-----------------|-----------------|-----------------|
Db|-----------------|-----------------|-----------------|-----------------|
Ab|-----------------|-----------------|-----------------|-----------------|
Eb|-3-------3-------|-3---------------|-3-----------3---|-3-------5-------|

Gb|-----------------|-----------------|-----------------|-----------------|
Db|-----------------|-------------7/9-|---7-------------|-----------------|
Ab|-----------------|-----------------|-----------------|-----------------|
Eb|-7---------------|-----------------|-----------------|-----------------|

Gb|-----------------|-----------------|-----------------|-----------------|
Db|-----------------|-----------------|-----------------|-----------------|
Ab|-----------------|-----------------|-----------------|-----------------|
Eb|-3-------3-------|-3---------------|-3-----------3---|-3-------5-------|

Gb|-----------------|-----------------|-----------------|-----------------|
Db|-----------------|-----------------|-----------------|-----------------|
Ab|-----------------|-----------------|-----------------|-----------------|
Eb|-7---------------|-----------------|-----------------|-----------------|

Gb|-----------------|-----------------|-----------------|-----------------|
Db|-----------------|-----------------|-----------------|-----------------|
Ab|-----------------|-----------------|-----------------|-----------------|
Eb|-3-------3-------|-3---------------|-3-----------3---|-3-------5-------|

Gb|-----------------|-----------------|-9-----7---------|-----------------|
Db|-----------------|-----------------|-------------7---|-----------------|
Ab|-----------------|-----------------|-----------------|-7----------h9---|
Eb|-7---------------|-----------------|-----------------|-----------------|

Gb|-----------------|-----------------|-----------------|-----------------|
Db|-----------------|-----------------|-----------------|-----------------|
Ab|-----------------|-----------------|-----------------|-----------------|
Eb|-3-------3-------|-3---------------|-3-----------3---|-3-------5-------|

[Pre-Chorus 2]
Gb|-----------------|-----------------|-----------------|-----------------|
Db|-----------------|-----------------|-----------------|-----------------|
Ab|-----------------|-----------------|-----------------|-----------------|
Eb|-0-----0---------|-0-----------0---|-2-----2---------|-2---------------|

Gb|-----------------|-----------------|-----------------|-----------------|
Db|-----------------|-----------------|-----------------|-----------------|
Ab|-----------------|-----------------|-----------------|---------9\------|
Eb|-3-----3-----3---|-3-----------5---|-----------------|-----------------|

[Chorus 2]                                                                   __
Gb|-----------------|-----------------|-----------------|-----------------|    |
Db|-----------------|-----------------|-----------------|-----------------|    |
Ab|-----------------|-----------------|-----------------|-----------------|    |
Eb|-3---3---------3-|-3-----------0-3-|-5-----5-----7---|-7---------------|    |
                                                                               | (x3)
Gb|-----------------|-----------------|-----------------|-----------------|    |
Db|-----------------|-----------------|-----------------|-----------------|    |
Ab|-----------------|-----------------|-----------------|-----------------|    |
Eb|-3---3---------3-|-3-----------0-3-|-5-----5-----7---|-7-------5-------|  __|

Gb|-----------------|-----------------|-----------------|-----------------|
Db|-----------------|-----------------|-----------------|-----------------|
Ab|-----------------|-----------------|-----------------|-----------------|
Eb|-3---3---------3-|-3-----------0-3-|-5-----5-----7---|-7---------------|

Gb|-----------------|-----------------|-----------------|-----------------|
Db|-----------------|-----------------|-----------------|-----------------|
Ab|-----------------|-----------------|-----------------|-----------------|
Eb|-0---0---------0-|-------------5---|-----------------|-------------8---|

[Bridge]
Gb|-----------------|-----------------|-----------------|-----------------|
Db|-----------------|-----------------|-----------------|-----------------|
Ab|-----------------|-----------------|-----------------|-----------------|
Eb|-8-----------8---|-8---------------|-8---8-------8---|-8---7---5-------|

Gb|-----------------|-----------------|-----------------|-----------------|
Db|-----------------|-----------------|-----------------|-----------------|
Ab|-----------------|-----------------|-----------------|-----------------|
Eb|-3---3---------3-|-------------5-3-|-2---2-------7---|-7-------7\------|

Gb|-----------------|-----------------|-----------------|-----------------|
Db|-----------------|-----------------|-----------------|-----------------|
Ab|-----------------|-----------------|-----------------|-----------------|
Eb|-3---3---------3-|-------------5-3-|-2---2-------7---|-7-------2-------|

Gb|-----------------|-----------------|-----------------|-----------------|
Db|-----------------|-----------------|-----------------|-----------------|
Ab|-----------------|-----------------|-----------------|-----------------|
Eb|-3---3---------3-|-------------5-3-|-2---2-------7---|-7--8------------|

[Chorus 3]
Gb|-----------------|-----------------|-----------------|-----------------|
Db|-----------------|-----------------|-----------------|-----------------|
Ab|-----------------|-----------------|-----------------|-----------------|
Eb|-3---3---------3-|-3-----------0-3-|-5-----5-----7---|-7---------------|

Gb|-----------------|-----------------|-----------------|-----------------|
Db|-----------------|-----------------|-----------------|-----------------|
Ab|-----------------|-----------------|-----------------|-----------------|
Eb|-3---3---------3-|-3-----------0-3-|-5-----5-----7---|-7-------5-------|

Gb|-----------------|-----------------|-----------------|-----------------|
Db|-----------------|-----------------|-----------------|-----------------|
Ab|-----------------|-----------------|-----------------|-----------------|
Eb|-3---3---------3-|-3-----------0-3-|-5-----5-----7---|-7---------------|

Gb|-----------------|-----------------|-----------------|-----------------|
Db|-----------------|-----------------|-----------------|-----------------|
Ab|-----------------|-----------------|-----------------|-----------------|
Eb|-3---3---------3-|-3-----------0-3-|-5-----5-----7---|-7-------2-------|

Gb|-----------------|-----------------|-----------------|-----------------|
Db|-----------------|-----------------|-----------------|-----------------|
Ab|-----------------|-----------------|-----------------|-----------------|
Eb|-3---3---------3-|-3-----------5-3-|-2-----2-----7---|-7---------------|

Gb|-----------------|-----------------|-----------------|-----------------|
Db|-----------------|-----------------|-----------------|-----------------|
Ab|-----------------|-----------------|-----------------|-----------------|
Eb|-3---3---------3-|-3-----------5-3-|-2-----2-----7---|-7-------2-------|

Gb|-----------------|-----------------|-----------------|-----------------|
Db|-----------------|-----------------|-----------------|-----------------|
Ab|-----------------|-----------------|-----------------|-----------------|
Eb|-3---3---------3-|-3-----------5-3-|-2-----2-----7---|-7-----------8---|


************************************

| b  Bend
| /  Slide up
| \  Slide down
| h  Hammer-on

************************************

            
            
Suggest correction
Creating personal tab
Creating personal tab
You can edit any tab online and save it as your Personal.

You can edit, replace or remove any tab part or add personal notes – all changes will be seen only by you.

Personal tabs can be accessed anytime from any device, even offline.
Learn more »
Give kudos to tab author, rate the tab!
1 2 3 4 5
comments
print report bad tab
guest
You may want to rate the tab now too:
select rating
Wanna post a correction for this tab? Suggest correction