Oops, an error
Loading. Please wait.

Somebody Else bass

5,095 views 75 this week
no commentswrite comment
1 2 3 4 5
x 9
add to favorites
×
Save as Personal and add changes to this tab that will be seen only by you. Learn more ›
×
You can save this tab as Personal to edit and correct it or add notes. All changes will be seen only by you. Learn more »
launch autoscroll
font size
0
reset
guitar tuner
edit
Autoscroll
slow
fast
+/-
esc
set tempo
stop
Author
About this tab version
Fully written out. Same as the original song. Was this info helpful? Yes No
[Intro]

You'll hear the rhythm but each note is played on the 3 count and 4"+"
PLAY THIS TWICE THROUGH

  1 + 2 + 3 + 4 + 1 + 2 + 3 + 4 + 1 + 2 + 3 + 4 + 
G|------------------------------------------------|
D|------------------------------------------------|
A|------------------------------------------------|
E|--------3-----1-------------------------5-----3-|
    
  1 + 2 + 3 + 4 + 1 + 2 + 3 + 4 + 1 + 2 + 3 + 4 + 
G|------------------------------------------------|
D|------------------------------------------------|
A|------------------------------------------------|
E|------------------------3-----1-----------------|


(Verse)
Count in 4s, every note lands on the 1 count
G|------------------------------------------------------------------|
D|------------------------------------------------------------------|
A|------------------------------------------------------------------|
E|--1---3----5----1---3---5-----1---3---5--5\--1---3---4---5---6----|

You could also play it an octave up for a softer sound
Which would be:

G|---------------------------------------------------------------------------|
D|---------------------------------------------------------------------------|
A|--8---10---12----8---10---12----8---10---12--12\--8---10---11---12---13----|
E|---------------------------------------------------------------------------|


[Chorus]

G|---------------------------------------------------------------------------|
D|---------------------------------------------------------------------------|
A|----------------------------------------------------------( X 4  )---------|
E|--1-1---1-1---0h1-1--1h3h5-5--3-3--3-3--3-3--1h3h5-5-----------------------|


(Post Chorus)

G|---------------------------------------------------------------------------|
D|---------------------------------------------------------------------------|
A|----------------------------------------------------------( X 2  )---------|
E|--1-1---1-1---0h1-1--1h3h5-5--3-3--3-3--3-3--1h3h5-5-----------------------|


(Second Verse)

G|---------------------------------------------------------------------------|
D|---------------------------------------------------------------------------|
A|----------------------------------------------------------( X 3  )---------|
E|--1-1---1-1---0h1-1--1h3h5-5--3-3--3-3--3-3--1h3h5-5-----------------------|

G|---------------------------------------------------------------------------|
D|---------------------------------------------------------------------------|
A|---------------------------------------------------------------------------|
E|--1-1---1-1---0h1-1--1h3h5-5--3-3--3-3--3-3--------------------------------|



[Chorus]

G|---------------------------------------------------------------------------|
D|---------------------------------------------------------------------------|
A|----------------------------------------------------------( X 4  )---------|
E|--1-1---1-1---0h1-1--1h3h5-5--3-3--3-3--3-3--1h3h5-5-----------------------|


(Post Chorus)

G|---------------------------------------------------------------------------|
D|---------------------------------------------------------------------------|
A|----------------------------------------------------------( X 2  )---------|
E|--1-1---1-1---0h1-1--1h3h5-5--3-3--3-3--3-3--1h3h5-5-----------------------|



(Bridge)

G|---------------------------------------------------------------------------|
D|---------------------------------------------------------------------------|
A|----------------------------------------------------------( X 4  )---------|
E|--1-1--1-1--1-1--1-1--1-1--1-1--3-3--3-3-----------------------------------|



(Last Chorus)


G|---------------------------------------------------------------------------|
D|---------------------------------------------------------------------------|
A|----------------------------------------------------------( X 6  )---------|
E|--1-1---1-1---0h1-1--1h3h5-5--3-3--3-3--3-3--1h3h5-5-----------------------|


[Outro]

G|---------------------------------------------------------------------------|
D|---------------------------------------------------------------------------|
A|---------------------------------------------------------------------------|
E|--1-1--1-1--1-1--1-1--1-1--1-1--3-3--3-3-----------------------------------|

G|---------------------------------------------------------------------------|
D|---------------------------------------------------------------------------|
A|---------------------------------------------------------------------------|
E|--1-1--1-1--1-1--1-1--1-1--1-1--3-33-33-33---------------------------------|

G|---------------------------------------------------------------------------|
D|---------------------------------------------------------------------------|
A|---------------------------------------------------------------------------|
E|--1-1--1-1--1-1--1-1--1-1--1-1--3-3--3-3-----------------------------------|


G|---------------------------------------------------------------------------|
D|---------------------------------------------------------------------------|
A|---------------------------------------------------------------------------|
E|--1-1--1-1--1-1--1-1--1-1--1-1--3-33-33-33---------------------------------|


************************************

| x   Dead note
| g   Grace note
| (n) Ghost note
| h   Hammer-on
| p   Pull-off
| r   Release
| >   Accented note
| t   Tapping
| b   Bend
| br  Bend release
| pb  Pre-bend
| pbr Pre-bend release
| /   Slide up
| \   Slide down
| ~   Vibrato
| s   Slap
| P   Pop
| PM  Palm mute
| TR  Trill
| N   Tremolo

************************************
Suggest correction
Creating personal tab
Creating personal tab
You can edit any tab online and save it as your Personal.

You can edit, replace or remove any tab part or add personal notes – all changes will be seen only by you.

Personal tabs can be accessed anytime from any device, even offline.
Learn more »
comments
print report bad tab
guest
You may want to rate the tab now too:
select rating
Wanna post a correction for this tab? Suggest correction