Oops, an error
Loading. Please wait.

The Sound tab

35,500 views 192 this week
1 commentread comment
1 2 3 4 5
x 15
add to favorites
×
Save as Personal and add changes to this tab that will be seen only by you. Learn more ›
×
You can save this tab as Personal to edit and correct it or add notes. All changes will be seen only by you. Learn more »
launch autoscroll
font size
0
reset
how to read this tab
guitar tuner
edit
Autoscroll
slow
fast
+/-
esc
set tempo
stop
Author
Difficulty
-------------------------------------------------------------------------------
                             The Sound - THE 1975
-------------------------------------------------------------------------------
Tabbed by: Blake McConnell
E-mail: blakekelseymcconnell@gmail.com

Check out my cover: https://www.youtube.com/watch?v=UA7urU5tl1A

Tuning: Standard


[Intro]

(repeat entirety of intro)
e|----------------------------------------------------------------------------------|
B|----------------------------------------------------------------------------------|
G|-xx-5-5----5-5--xx-5-5---5-5--xx-5-5----5-5--xx-5-5--7-5-5--7-5-5-----------------| 
D|--------5h7-----------5h7------------5h7----------------7------7------------------|
A|----------------------------------------------------------------------------------|
E|----------------------------------------------------------------------------------|


No Guitar In Verse 1


[Pre-Chorus]

e|-------------------------------------------------------------------------------|
B|--5-5--3---1-1--1----5-5--3---1-1--1----5-5--3--1-1-1---5~--1~-1~-3-3-3-3-3----|
G|--5-5--5---0-0--2----5-5--5---0-0--2----5-5--5--0-0-2---7~--0~-2~-5-5-5-5-5----|
D|--7-7--5---2-2--3----7-7--5---2-2--3----7-7--5--2-2-3---7~--2~-3~-5-5-5-5-5----|
A|-------------------------------------------------------------------------------|
E|-------------------------------------------------------------------------------|


[Chorus]

(repeat entirety of chorus)
e|----------------------------------------------------------------------------------|
B|----------------------------------------------------------------------------------|
G|-xx-5-5----5-5--xx-5-5---5-5--xx-5-5---5-5--xx-5-5--7-5-5--7-5-5------------------|  
D|--------5h7-----------5h7-----------5h7----------------7------7-------------------|
A|----------------------------------------------------------------------------------|
E|----------------------------------------------------------------------------------|


[Verse 2]

(repeat entirety of verse)
e|----------------------------------------------------------------------------------|
B|----------------------------------------------------------------------------------|
G|-xx-5-5----5-5--xx-5-5---5-5--xx-5-5---5-5--xx-5-5--7-5-5--7-5-5------------------|  
D|--------5h7-----------5h7-----------5h7----------------7------7-------------------|
A|----------------------------------------------------------------------------------|
E|----------------------------------------------------------------------------------|


[Chorus]

(repeat entirety of chorus)
e|----------------------------------------------------------------------------------|
B|----------------------------------------------------------------------------------|
G|-xx-5-5----5-5--xx-5-5---5-5--xx-5-5---5-5--xx-5-5--7-5-5--7-5-5------------------|  
D|--------5h7-----------5h7-----------5h7----------------7------7-------------------|
A|----------------------------------------------------------------------------------|
E|----------------------------------------------------------------------------------|


[Solo]

(repeat last bar until fade out or play chorus riff)
e|---------------------------------------------------------------------------------|
B|---------------------------------------------------------------------------------|
G|--5-5--7-7-5-7/9-7\5--5--7-7-5-7/9 7\5--5--7-7-5-7/9-7\5-5-7---5-4~--------------|
D|-------------------------------------------------------------7-------------------|
A|---------------------------------------------------------------------------------|
E|---------------------------------------------------------------------------------|

e|--------------------15/17-15~----------------------------------------------|
B|---------------13~---------------------------------------------------------|
G|---------------------------------9h10p9------------------------------------|
D|-12/14-10/12\10-------------------------12/14-----------12-12~-------------|
A|----------------------------------------------12-10--12--------------------|
E|---------------------------------------------------------------------------|

e|-----------------15/20--20-20-20-20--17-15-17-------15--15--15--15---------|
B|----------------------------------------------15h17---15--15------17-17-15-|
G|---------------------------------------------------------------------------|
D|-10-12/14-12\10------------------------------------------------------------|
A|---------------------------------------------------------------------------|
E|---------------------------------------------------------------------------|

e|---------------------------------------------------------------------------|
B|-13-15/17-15/13--13--13-15/17-15/13--13--13-15/20 15/13--13----------------|
G|---------------14------------------14------------------14------------------| 
D|---------------------------------------------------------------------------|
A|---------------------------------------------------------------------------|
E|---------------------------------------------------------------------------|



************************************
| /   slide up
| \   slide down
| h   hammer-on
| p   pull-off
| ~   vibrato
| x   Mute note
************************************

            
            
Suggest correction
Creating personal tab
Creating personal tab
You can edit any tab online and save it as your Personal.

You can edit, replace or remove any tab part or add personal notes – all changes will be seen only by you.

Personal tabs can be accessed anytime from any device, even offline.
Learn more »
comments
print report bad tab
1 comment total.
0 reply
JalenChin 424 Jan 19, 2016 12:18 PM

Sounds great! Awesome job! Can't wait to hear the rest of their album.

guest
You may want to rate the tab now too:
select rating
Wanna post a correction for this tab? Suggest correction