Oops, an error
Loading. Please wait.

The Sound Bass

version 2
version 2

Whole song

  • By ear, but very close, if not, the exact same as the original song.
259 views 3 this week
no commentswrite comment
1 2 3 4 5
2 more votes to show rating
add to favorites
launch autoscroll
font size
0
reset
guitar tuner
Autoscroll
slow
fast
+/-
esc
set tempo
stop
Author
Difficulty
novice
About this tab version
By ear, but very close, if not, the exact same as the original song. Was this info helpful? Yes No
[Intro]
Starts when the drums come in

G|-------------------------------------------------------|
D|-------------------------------------------------------|
A|-------------------------------------------------------|
E|-1--------0-0--1--------0-0--1--------0-0--1---3-------|


[Verse]
(The "7-7" is a lead in to "8" which lands on the first count of the bar)
(I trust that you'll hear it, and understand the rhythm)

Play through only once
G|-----------------------------------------------------------|
D|-----------------------------------------------------------|
A|-7-7--8--------7-7--8--------7-7--8--------7-7--8---10-----|
E|-----------------------------------------------------------|


[Pre Chorus]

G|---------------------------------------------------------------------------|
D|---------------------------------------------------------------------------|
A|-8h10/12-12--10----10p8\7-7--8----8h10/12-12--10----10p8\7-7--8------------|
E|---------------------------------------------------------------------------|

G|---------------------------------------------------------------------------|
D|---------------------------------------------------------------------------|
A|-8h10/12-12--10----10p8\7-7--8----8p7p5-5--7--5h7h8-8--10------------------|
E|----------------------------------------------------------------------0-0--|


[Chorus]

G|---------------------------------------------------------------------------|
D|---------------------------------------------------------------------------|
A|---------------------------------------------------------------------------|
E|-1----5-5--3----0-0--1----5-5--3----0-0--1----5-5--3----0-0--1----5-5--3---|


[Verse 2]

G|-------------------------------------------------------------|
D|-------------------------------------------------------------|
A|-7-7--8--------7-7--8--------7-7--8--------7-7--8------------|
E|-------------------------------------------------------------|

G|-------------------------------------------------------------|
D|-------------------------------------------------------------|
A|-7-7--8--------7-7--8--------7-7--8--------7-7--8---10-------|
E|-------------------------------------------------------------|


[Pre Chorus]

G|---------------------------------------------------------------------------|
D|---------------------------------------------------------------------------|
A|-8h10/12-12--10----10p8\7-7--8----8h10/12-12--10----10p8\7-7--8------------|
E|---------------------------------------------------------------------------|

G|---------------------------------------------------------------------------|
D|---------------------------------------------------------------------------|
A|-8h10/12-12--10----10p8\7-7--8----8p7p5-5--7--5h7h8-8--10------------------|
E|----------------------------------------------------------------------0-0--|


[Second Chorus]

G|---------------------------------------------------------------------------|
D|---------------------------------------------------------------------------|
A|---------------------------------------------------------------------------|
E|-1----5-5--3----0-0--1----5-5--3----0-0--1----5-5--3----0-0--1----5-5--3---|

G|--------------------------------------------------------------------------------|
D|--------------------------------------------------------------------------------|
A|--------------------------------------------------------------------------------|
E|-0-0--1----5-5--3----0-0--1----5-5--3----0-0--1----5-5--3----0-0--1----5-5--3---|


(break)


[Guitar Solo]
(There's no lead in, start right on the F)

G|---------------------------------------------------------------------------|
D|---------------------------------------------------------------------------|
A|---------------------------------------------------------------------------|
E|-1----5-5--3----0-0--1----5-5--3----0-0--1----5-5--3----0-0--1----5-5--3---|

G|--------------------------------------------------------------------------------|
D|--------------------------------------------------------------------------------|
A|--------------------------------------------------------------------------------|
E|-0-0--1----5-5--3----0-0--1----5-5--3----0-0--1----5-5--3----0-0--1----5-5--3---|


[Last Chorus]

G|--------------------------------------------------------------------------------|
D|--------------------------------------------------------------------------------|
A|--------------------------------------------------------------------------------|
E|-0-0--1----5-5--3----0-0--1----5-5--3----0-0--1----5-5--3----0-0--1----5-5--3---|

G|--------------------------------------------------------------------|
D|--------------------------------------------------------------------|
A|--------------------------------------------------------------------|
E|-0-0--1----5-5--3----0-0--1----5-5--3----0-0--1----5-5--3----0-0--1-|




************************************

| x   Dead note
| g   Grace note
| (n) Ghost note
| h   Hammer-on
| p   Pull-off
| r   Release
| >   Accented note
| t   Tapping
| b   Bend
| br  Bend release
| pb  Pre-bend
| pbr Pre-bend release
| /   Slide up
| \   Slide down
| ~   Vibrato
| s   Slap
| P   Pop
| PM  Palm mute
| TR  Trill
| N   Tremolo

************************************
Suggest correction
Give kudos to tab author, rate the tab!
1 2 3 4 5
comments
print report bad tab
guest
You may want to rate the tab now too:
select rating
Wanna post a correction for this tab? Suggest correction