Oops, an error
Loading. Please wait.

This Must Be My Dream Bass Tab

64 views 9 this week
no commentswrite comment
1 2 3 4 5
3 more votes to show rating
add to favorites
launch autoscroll
font size
0
reset
guitar tuner
Autoscroll
slow
fast
+/-
esc
set tempo
stop
Help us to improve Ultimate-Guitar.com Take our survey!
×
Author
Difficulty
novice
About this tab version
Chords are by ear, tab goes with the real songs chords. Was this info helpful? Yes No
[Intro 0:03-0:20]

G|---------------------------------|
D|---------------------------------|
A|---------------------------------|
E|-10-10-12-12-14-14-12-12---14~---| x4


[Verse]

Around 0:21, "I personify the 'adolescent on a phone'..."

G|---------------------------------------------------------------------------|
D|---------------------------------------------------------------------------|
A|---------------------------------------------------------------------------|
E|-10-10--10-10--9-9--14-14--------------------------------------------------| x7

"So why's this beating on my chest?"

G|---------------------------------------------------------------------------|
D|---------------------------------------------------------------------------|
A|---------------------------------------------------------------------------|
E|-10-10-12-12-14-14-12-12---------------------------------------------------|


[Chorus]

"This must be my dream..."

G|---------------------------------|
D|---------------------------------|
A|---------------------------------|
E|-10-10-12-12-14-14-12-12---14~---| x4


[Verse 2 repeating verse 1]

G|---------------------------------------------------------------------------|
D|---------------------------------------------------------------------------|
A|---------------------------------------------------------------------------|
E|-10-10--10-10--9-9--14-14--------------------------------------------------| x7

"Or care about your beating chest..."

G|---------------------------------------------------------------------------|
D|---------------------------------------------------------------------------|
A|---------------------------------------------------------------------------|
E|-10-10-12-12-14-14-12-12---------------------------------------------------|


[Chorus 2 is longer]

"This must be my dream..."

G|---------------------------------|
D|---------------------------------|
A|---------------------------------|
E|-10-10-12-12-14-14-12-12---14~---| x6

[2:22-2:27]

"Wake me from my dream..."

G|-------------------------|--------------------------|
D|-------------------------|--------------------------|
A|-------------------------|-12-12-11-11--------------|
E|-10-10-12-12-14-14-12-12-|-------------12-12-14-14--|

"This must be my dream..."

G|---------------------------------|
D|---------------------------------|
A|---------------------------------|
E|-10-10-12-12-14-14-12-12---14~---|

[Break 2:32-3:08]


[Outro - start back up with the sax solo]

G|---------------------------------|
D|---------------------------------|
A|---------------------------------|
E|-10-10-12-12-14-14-12-12---14~---| x3

[Then]

G|-------------------------|--------------------------|
D|-------------------------|--------------------------|
A|-------------------------|-12-12-11-11--------------|
E|-10-10-12-12-14-14-12-12-|-------------12-12-14-14--|

G|---------------------------------|
D|---------------------------------|
A|---------------------------------|
E|-10-10-12-12-14-14-12-12---14~---| x8


If I'm missing something let me know.
p.s. this is by ear.

**************************

| ~   Vibrato

**************************
Suggest correction
Give kudos to tab author, rate the tab!
1 2 3 4 5
comments
print report bad tab
guest
You may want to rate the tab now too:
select rating
Wanna post a correction for this tab? Suggest correction